999
dxflib 2.0.4.8
  0
SECTION
  2
HEADER
  9
$ACADVER
  1
AC1015
  9
$HANDSEED
  5
FFFF
  9
$DIMASZ
 40
2.5
  9
$DIMGAP
 40
0.625
  9
$INSUNITS
 70
4
  9
$DIMEXO
 40
0.625
  9
$DIMTXT
 40
2.5
  9
$DIMSTYLE
  2
Standard
  9
$PLIMMIN
 10
0.0
 20
0.0
  9
$PLIMMAX
 10
210.0
 20
297.0
  9
$DIMEXE
 40
1.25
  0
ENDSEC
  0
SECTION
  2
TABLES
  0
TABLE
  2
VPORT
  5
8
100
AcDbSymbolTable
 70
1
  0
VPORT
  5
30
100
AcDbSymbolTableRecord
100
AcDbViewportTableRecord
  2
*Active
 70
0
 10
0.0
 20
0.0
 11
1.0
 21
1.0
 12
286.3055555555554861
 22
148.5
 13
0.0
 23
0.0
 14
10.0
 24
10.0
 15
10.0
 25
10.0
 16
0.0
 26
0.0
 36
1.0
 17
0.0
 27
0.0
 37
0.0
 40
297.0
 41
1.92798353909465
 42
50.0
 43
0.0
 44
0.0
 50
0.0
 51
0.0
 71
0
 72
100
 73
1
 74
3
 75
1
 76
1
 77
0
 78
0
281
0
 65
1
110
0.0
120
0.0
130
0.0
111
1.0
121
0.0
131
0.0
112
0.0
122
1.0
132
0.0
 79
0
146
0.0
  0
ENDTAB
  0
TABLE
  2
LTYPE
  5
5
100
AcDbSymbolTable
 70
21
  0
LTYPE
  5
14
100
AcDbSymbolTableRecord
100
AcDbLinetypeTableRecord
  2
ByBlock
 70
0
  3

 72
65
 73
0
 40
0.0
  0
LTYPE
  5
15
100
AcDbSymbolTableRecord
100
AcDbLinetypeTableRecord
  2
ByLayer
 70
0
  3

 72
65
 73
0
 40
0.0
  0
LTYPE
  5
16
100
AcDbSymbolTableRecord
100
AcDbLinetypeTableRecord
  2
CONTINUOUS
 70
0
  3
Solid line
 72
65
 73
0
 40
0.0
  0
LTYPE
  5
31
100
AcDbSymbolTableRecord
100
AcDbLinetypeTableRecord
  2
DOT
 70
0
  3
Dot . . . . . . . . . . . . . . . . . . . . . .
 72
65
 73
2
 40
6.3499999999999996
 49
0.0
 74
0
 49
-6.3499999999999996
 74
0
  0
LTYPE
  5
32
100
AcDbSymbolTableRecord
100
AcDbLinetypeTableRecord
  2
DOT2
 70
0
  3
Dot (.5x) .....................................
 72
65
 73
2
 40
3.1749999999999998
 49
0.0
 74
0
 49
-3.1749999999999998
 74
0
  0
LTYPE
  5
33
100
AcDbSymbolTableRecord
100
AcDbLinetypeTableRecord
  2
DOTX2
 70
0
  3
Dot (2x) .  .  .  .  .  .  .  .  .  .  .  .  .
 72
65
 73
2
 40
12.6999999999999993
 49
0.0
 74
0
 49
-12.6999999999999993
 74
0
  0
LTYPE
  5
34
100
AcDbSymbolTableRecord
100
AcDbLinetypeTableRecord
  2
DASHED
 70
0
  3
Dashed __ __ __ __ __ __ __ __ __ __ __ __ __ _
 72
65
 73
2
 40
19.0500000000000007
 49
12.6999999999999993
 74
0
 49
-6.3499999999999996
 74
0
  0
LTYPE
  5
35
100
AcDbSymbolTableRecord
100
AcDbLinetypeTableRecord
  2
DASHED2
 70
0
  3
Dashed (.5x) _ _ _ _ _ _ _ _ _ _ _ _ _ _ _ _ _
 72
65
 73
2
 40
9.5250000000000004
 49
6.3499999999999996
 74
0
 49
-3.1749999999999998
 74
0
  0
LTYPE
  5
36
100
AcDbSymbolTableRecord
100
AcDbLinetypeTableRecord
  2
DASHEDX2
 70
0
  3
Dashed (2x) ____  ____  ____  ____  ____  ___
 72
65
 73
2
 40
38.1000000000000014
 49
25.3999999999999986
 74
0
 49
-12.6999999999999993
 74
0
  0
LTYPE
  5
37
100
AcDbSymbolTableRecord
100
AcDbLinetypeTableRecord
  2
DASHDOT
 70
0
  3
Dash dot __ . __ . __ . __ . __ . __ . __ . __
 72
65
 73
4
 40
25.3999999999999986
 49
12.6999999999999993
 74
0
 49
-6.3499999999999996
 74
0
 49
0.0
 74
0
 49
-6.3499999999999996
 74
0
  0
LTYPE
  5
38
100
AcDbSymbolTableRecord
100
AcDbLinetypeTableRecord
  2
DASHDOT2
 70
0
  3
Dash dot (.5x) _._._._._._._._._._._._._._._.
 72
65
 73
4
 40
12.6999999999999993
 49
6.3499999999999996
 74
0
 49
-3.1749999999999998
 74
0
 49
0.0
 74
0
 49
-3.1749999999999998
 74
0
  0
LTYPE
  5
39
100
AcDbSymbolTableRecord
100
AcDbLinetypeTableRecord
  2
DASHDOTX2
 70
0
  3
Dash dot (2x) ____  .  ____  .  ____  .  ___
 72
65
 73
4
 40
50.7999999999999972
 49
25.3999999999999986
 74
0
 49
-12.6999999999999993
 74
0
 49
0.0
 74
0
 49
-12.6999999999999993
 74
0
  0
LTYPE
  5
3A
100
AcDbSymbolTableRecord
100
AcDbLinetypeTableRecord
  2
DIVIDE
 70
0
  3
Divide ____ . . ____ . . ____ . . ____ . . ____
 72
65
 73
6
 40
31.75
 49
12.6999999999999993
 74
0
 49
-6.3499999999999996
 74
0
 49
0.0
 74
0
 49
-6.3499999999999996
 74
0
 49
0.0
 74
0
 49
-6.3499999999999996
 74
0
  0
LTYPE
  5
3B
100
AcDbSymbolTableRecord
100
AcDbLinetypeTableRecord
  2
DIVIDE2
 70
0
  3
Divide (.5x) __..__..__..__..__..__..__..__.._
 72
65
 73
6
 40
15.875
 49
6.3499999999999996
 74
0
 49
-3.1749999999999998
 74
0
 49
0.0
 74
0
 49
-3.1749999999999998
 74
0
 49
0.0
 74
0
 49
-3.1749999999999998
 74
0
  0
LTYPE
  5
3C
100
AcDbSymbolTableRecord
100
AcDbLinetypeTableRecord
  2
DIVIDEX2
 70
0
  3
Divide (2x) ________  .  .  ________  .  .  _
 72
65
 73
6
 40
63.5
 49
25.3999999999999986
 74
0
 49
-12.6999999999999993
 74
0
 49
0.0
 74
0
 49
-12.6999999999999993
 74
0
 49
0.0
 74
0
 49
-12.6999999999999993
 74
0
  0
LTYPE
  5
3D
100
AcDbSymbolTableRecord
100
AcDbLinetypeTableRecord
  2
CENTER
 70
0
  3
Center ____ _ ____ _ ____ _ ____ _ ____ _ ____
 72
65
 73
4
 40
50.7999999999999972
 49
31.75
 74
0
 49
-6.3499999999999996
 74
0
 49
6.3499999999999996
 74
0
 49
-6.3499999999999996
 74
0
  0
LTYPE
  5
3E
100
AcDbSymbolTableRecord
100
AcDbLinetypeTableRecord
  2
CENTER2
 70
0
  3
Center (.5x) ___ _ ___ _ ___ _ ___ _ ___ _ ___
 72
65
 73
4
 40
28.5749999999999993
 49
19.0500000000000007
 74
0
 49
-3.1749999999999998
 74
0
 49
3.1749999999999998
 74
0
 49
-3.1749999999999998
 74
0
  0
LTYPE
  5
3F
100
AcDbSymbolTableRecord
100
AcDbLinetypeTableRecord
  2
CENTERX2
 70
0
  3
Center (2x) ________  __  ________  __  _____
 72
65
 73
4
 40
101.5999999999999943
 49
63.5
 74
0
 49
-12.6999999999999993
 74
0
 49
12.6999999999999993
 74
0
 49
-12.6999999999999993
 74
0
  0
LTYPE
  5
40
100
AcDbSymbolTableRecord
100
AcDbLinetypeTableRecord
  2
BORDER
 70
0
  3
Border __ __ . __ __ . __ __ . __ __ . __ __ .
 72
65
 73
6
 40
44.4500000000000028
 49
12.6999999999999993
 74
0
 49
-6.3499999999999996
 74
0
 49
12.6999999999999993
 74
0
 49
-6.3499999999999996
 74
0
 49
0.0
 74
0
 49
-6.3499999999999996
 74
0
  0
LTYPE
  5
41
100
AcDbSymbolTableRecord
100
AcDbLinetypeTableRecord
  2
BORDER2
 70
0
  3
Border (.5x) __.__.__.__.__.__.__.__.__.__.__.
 72
65
 73
6
 40
22.2250000000000014
 49
6.3499999999999996
 74
0
 49
-3.1749999999999998
 74
0
 49
6.3499999999999996
 74
0
 49
-3.1749999999999998
 74
0
 49
0.0
 74
0
 49
-3.1749999999999998
 74
0
  0
LTYPE
  5
42
100
AcDbSymbolTableRecord
100
AcDbLinetypeTableRecord
  2
BORDERX2
 70
0
  3
Border (2x) ____  ____  .  ____  ____  .  ___
 72
65
 73
6
 40
88.9000000000000057
 49
25.3999999999999986
 74
0
 49
-12.6999999999999993
 74
0
 49
25.3999999999999986
 74
0
 49
-12.6999999999999993
 74
0
 49
0.0
 74
0
 49
-12.6999999999999993
 74
0
  0
ENDTAB
  0
TABLE
  2
LAYER
  5
2
100
AcDbSymbolTable
 70
1
  0
LAYER
  5
10
100
AcDbSymbolTableRecord
100
AcDbLayerTableRecord
  2
0
 70
0
 62
7
  6
CONTINUOUS
370
0
390
F
  0
ENDTAB
  0
TABLE
  2
STYLE
  5
3
100
AcDbSymbolTable
 70
1
  0
STYLE
  5
11
100
AcDbSymbolTableRecord
100
AcDbTextStyleTableRecord
  2
Standard
 70
0
 40
0.0
 41
0.75
 50
0.0
 71
0
 42
2.5
  3
txt
  4

  0
ENDTAB
  0
TABLE
  2
VIEW
  5
6
100
AcDbSymbolTable
 70
0
  0
ENDTAB
  0
TABLE
  2
UCS
  5
7
100
AcDbSymbolTable
 70
0
  0
ENDTAB
  0
TABLE
  2
APPID
  5
9
100
AcDbSymbolTable
 70
1
  0
APPID
  5
12
100
AcDbSymbolTableRecord
100
AcDbRegAppTableRecord
  2
ACAD
 70
0
  0
ENDTAB
  0
TABLE
  2
DIMSTYLE
  5
A
100
AcDbSymbolTable
 70
1
100
AcDbDimStyleTable
 71
0
  0
DIMSTYLE
105
27
100
AcDbSymbolTableRecord
100
AcDbDimStyleTableRecord
  2
Standard
 41
2.5
 42
0.625
 43
3.75
 44
1.25
 70
0
 73
0
 74
0
 77
1
 78
8
140
2.5
141
2.5
143
0.03937007874016
147
0.625
171
3
172
1
271
2
272
2
274
3
278
44
283
0
284
8
340
11
  0
ENDTAB
  0
TABLE
  2
BLOCK_RECORD
  5
1
100
AcDbSymbolTable
 70
1
  0
BLOCK_RECORD
  5
1F
100
AcDbSymbolTableRecord
100
AcDbBlockTableRecord
  2
*Model_Space
340
22
  0
BLOCK_RECORD
  5
1B
100
AcDbSymbolTableRecord
100
AcDbBlockTableRecord
  2
*Paper_Space
340
1E
  0
BLOCK_RECORD
  5
23
100
AcDbSymbolTableRecord
100
AcDbBlockTableRecord
  2
*Paper_Space0
340
26
  0
ENDTAB
  0
ENDSEC
  0
SECTION
  2
BLOCKS
  0
BLOCK
  5
20
100
AcDbEntity
  8
0
100
AcDbBlockBegin
  2
*Model_Space
 70
0
 10
0.0
 20
0.0
 30
0.0
  3
*Model_Space
  1

  0
ENDBLK
  5
21
100
AcDbEntity
  8
0
100
AcDbBlockEnd
  0
BLOCK
  5
1C
100
AcDbEntity
 67
1
  8
0
100
AcDbBlockBegin
  2
*Paper_Space
 70
0
 10
0.0
 20
0.0
 30
0.0
  3
*Paper_Space
  1

  0
ENDBLK
  5
1D
100
AcDbEntity
 67
1
  8
0
100
AcDbBlockEnd
  0
BLOCK
  5
24
100
AcDbEntity
  8
0
100
AcDbBlockBegin
  2
*Paper_Space0
 70
0
 10
0.0
 20
0.0
 30
0.0
  3
*Paper_Space0
  1

  0
ENDBLK
  5
25
100
AcDbEntity
  8
0
100
AcDbBlockEnd
  0
ENDSEC
  0
SECTION
  2
ENTITIES
  0
LINE
  5
43
100
AcDbEntity
100
AcDbLine
  8
0
 62
256
370
40
  6
DASHEDX2
 10
-0.2621440000000006
 20
-10.0270080000000217
 30
0.0
 11
126.8480000000004537
 21
-10.1120000000000356
 31
0.0
  0
LINE
  5
44
100
AcDbEntity
100
AcDbLine
  8
0
 62
256
370
40
  6
ByLayer
 10
-0.2621440000000002
 20
10.0663296000000066
 30
0.0
 11
126.8480000000004537
 21
10.2400000000000357
 31
0.0
  0
LINE
  5
45
100
AcDbEntity
100
AcDbLine
  8
0
 62
256
370
40
  6
ByLayer
 10
59.1278076171877558
 20
18.1198120117188282
 30
0.0
 11
59.0625000000002913
 21
-30.0000000000001421
 31
0.0
  0
LINE
  5
46
100
AcDbEntity
100
AcDbLine
  8
0
 62
256
370
40
  6
ByLayer
 10
59.2000000000003439
 20
-29.8000000000001748
 30
0.0
 11
123.6000000000007191
 21
-29.600000000000172
 31
0.0
  0
LINE
  5
47
100
AcDbEntity
100
AcDbLine
  8
0
 62
256
370
40
  6
DASHEDX2
 10
-0.2621440000000006
 20
-30.0154880000000652
 30
0.0
 11
59.2000000000003439
 21
-29.600000000000172
 31
0.0
  0
SPLINE
  5
48
  8
0
 62
256
370
40
  6
ByLayer
100
AcDbEntity
100
AcDbSpline
 70
8
 71
3
 72
12
 73
8
 74
0
 40
0.0
 40
0.0
 40
0.0
 40
0.0
 40
0.2
 40
0.4
 40
0.6
 40
0.8
 40
1.0
 40
1.0
 40
1.0
 40
1.0
 10
-0.4000000000000025
 20
10.2000000000000632
 30
0.0
 10
12.2000000000000757
 20
9.2000000000000579
 30
0.0
 10
24.6000000000001542
 20
7.2000000000000446
 30
0.0
 10
34.8000000000002174
 20
6.6000000000000414
 30
0.0
 10
45.4000000000002828
 20
2.6000000000000161
 30
0.0
 10
52.4000000000003254
 20
-1.2000000000000075
 30
0.0
 10
56.200000000000351
 20
-7.0000000000000435
 30
0.0
 10
59.0000000000003695
 20
-9.8000000000000611
 30
0.0
  0
SPLINE
  5
49
  8
0
 62
256
370
40
  6
ByLayer
100
AcDbEntity
100
AcDbSpline
 70
8
 71
3
 72
12
 73
8
 74
0
 40
0.0
 40
0.0
 40
0.0
 40
0.0
 40
0.2
 40
0.4
 40
0.6
 40
0.8
 40
1.0
 40
1.0
 40
1.0
 40
1.0
 10
119.1731019522783868
 20
-27.3088937093277693
 30
0.0
 10
106.5423861171373261
 20
-26.8345336225598459
 30
0.0
 10
94.0698481561827862
 20
-25.3527114967464122
 30
0.0
 10
83.8537093275493248
 20
-25.1780477223429031
 30
0.0
 10
73.0963123644256143
 20
-21.6229934924079572
 30
0.0
 10
65.9441214750546436
 20
-18.1178308026031587
 30
0.0
 10
61.9058568329721837
 20
-12.4811279826465018
 30
0.0
 10
58.9916702819960292
 20
-9.8001735357918189
 30
0.0
  0
LEADER
  5
4A
  8
0
 62
256
370
40
  6
ByLayer
100
AcDbEntity
100
AcDbLeader
  3
Standard
 71
1
 72
0
 73
3
 74
0
 75
0
 40
1.0
 41
10.0
 76
2
 10
126.7200000000009226
 20
10.2400000000000748
 10
113.6640000000008257
 20
10.2400000000000748
  0
LINE
  5
4B
100
AcDbEntity
100
AcDbLine
  8
0
 62
256
370
40
  6
ByLayer
 10
-0.2500000000000031
 20
-50.0
 30
0.0
 11
-0.1280000000000009
 21
28.9280000000002104
 31
0.0
  0
LEADER
  5
4C
  8
0
 62
256
370
40
  6
ByLayer
100
AcDbEntity
100
AcDbLeader
  3
Standard
 71
1
 72
0
 73
3
 74
0
 75
0
 40
1.0
 41
10.0
 76
2
 10
-0.1280000000000009
 20
28.9280000000002104
 10
-0.1280000000000009
 20
15.2320000000001112
  0
MTEXT
  5
4D
100
AcDbEntity
100
AcDbMText
  8
0
 62
256
370
40
  6
ByLayer
 10
-9.7600000000000833
 20
-10.2400000000000873
 30
0.0
 40
5.0
 41
100.0
 71
5
 72
2
  1
-p/2
  7
symbol
 50
0.0
 73
0
 44
1.0
  0
MTEXT
  5
4E
100
AcDbEntity
100
AcDbMText
  8
0
 62
256
370
40
  6
ByLayer
 10
-6.8000000000000576
 20
-29.200000000000248
 30
0.0
 40
5.0
 41
100.0
 71
5
 72
2
  1
-p
  7
symbol
 50
0.0
 73
0
 44
1.0
  0
MTEXT
  5
4F
100
AcDbEntity
100
AcDbMText
  8
0
 62
256
370
40
  6
ByLayer
 10
-5.0000000000000426
 20
12.8000000000001091
 30
0.0
 40
5.0
 41
100.0
 71
5
 72
2
  1
j
  7
symbol
 50
0.0
 73
0
 44
1.0
  0
MTEXT
  5
50
100
AcDbEntity
100
AcDbMText
  8
0
 62
256
370
40
  6
ByLayer
 10
121.4000000000010289
 20
14.8000000000001268
 30
0.0
 40
5.0
 41
100.0
 71
5
 72
2
  1
l
  7
symbol
 50
0.0
 73
0
 44
1.0
  0
MTEXT
  5
51
100
AcDbEntity
100
AcDbMText
  8
0
 62
256
370
40
  6
ByLayer
 10
62.2000000000005286
 20
15.200000000000129
 30
0.0
 40
5.0
 41
100.0
 71
5
 72
2
  1
v
  7
symbol
 50
0.0
 73
0
 44
1.0
  0
MTEXT
  5
52
100
AcDbEntity
100
AcDbMText
  8
0
 62
256
370
40
  6
ByLayer
 10
-3.6000000000000307
 20
9.6000000000000814
 30
0.0
 40
2.0
 41
100.0
 71
5
 72
2
  1
O
  7
symbol
 50
0.0
 73
0
 44
1.0
  0
MTEXT
  5
53
100
AcDbEntity
100
AcDbMText
  8
0
 62
256
370
40
  6
ByLayer
 10
64.8000000000005514
 20
12.600000000000108
 30
0.0
 40
2.0
 41
100.0
 71
5
 72
2
  1
O
  7
symbol
 50
0.0
 73
0
 44
1.0
  0
MTEXT
  5
54
100
AcDbEntity
100
AcDbMText
  8
0
 62
256
370
40
  6
ByLayer
 10
90.4000000000007731
 20
-32.6000000000002785
 30
0.0
 40
5.0
 41
100.0
 71
5
 72
2
  1
b=0
  7
symbol
 50
0.0
 73
0
 44
1.0
  0
MTEXT
  5
55
100
AcDbEntity
100
AcDbMText
  8
0
 62
256
370
40
  6
ByLayer
 10
116.4000000000009862
 20
-21.8000000000001855
 30
0.0
 40
5.0
 41
100.0
 71
5
 72
2
  1
b=0
  7
symbol
 50
0.0
 73
0
 44
1.0
  0
LINE
  5
56
100
AcDbEntity
100
AcDbLine
  8
0
 62
256
370
40
  6
ByLayer
 10
115.5200000000011187
 20
-24.3200000000002348
 30
0.0
 11
117.280000000001138
 21
-19.5200000000001879
 31
0.0
  0
LINE
  5
57
100
AcDbEntity
100
AcDbLine
  8
0
 62
256
370
40
  6
ByLayer
 10
145.7500000000015348
 20
-29.5000000000003091
 30
0.0
 11
145.6000000000016428
 21
33.6000000000003851
 31
0.0
  0
LEADER
  5
58
  8
0
 62
256
370
40
  6
ByLayer
100
AcDbEntity
100
AcDbLeader
  3
Standard
 71
1
 72
0
 73
3
 74
0
 75
0
 40
1.0
 41
10.0
 76
2
 10
145.7600000000017815
 20
33.6000000000004135
 10
145.6000000000017849
 20
12.1600000000001494
  0
LINE
  5
59
100
AcDbEntity
100
AcDbLine
  8
0
 62
256
370
40
  6
DASHEDX2
 10
210.6000000000043428
 20
32.6000000000006693
 30
0.0
 11
210.6000000000043428
 21
-29.6000000000006089
 31
0.0
  0
MTEXT
  5
5A
100
AcDbEntity
100
AcDbMText
  8
0
 62
256
370
40
  6
DASHEDX2
 10
207.8000000000042746
 20
37.8000000000007788
 30
0.0
 40
5.0
 41
100.0
 71
5
 72
2
  1
b=0
  7
symbol
 50
0.0
 73
0
 44
1.0
  0
MTEXT
  5
5B
100
AcDbEntity
100
AcDbMText
  8
0
 62
256
370
40
  6
DASHEDX2
 10
204.4000000000042121
 20
12.4000000000002562
 30
0.0
 40
5.0
 41
100.0
 71
5
 72
2
  1
b
  7
symbol
 50
0.0
 73
0
 44
1.0
  0
MTEXT
  5
5C
100
AcDbEntity
100
AcDbMText
  8
0
 62
256
370
40
  6
DASHEDX2
 10
193.2000000000039677
 20
-3.8000000000000784
 30
0.0
 40
5.0
 41
100.0
 71
5
 72
2
  1
b
  7
symbol
 50
0.0
 73
0
 44
1.0
  0
MTEXT
  5
5D
100
AcDbEntity
100
AcDbMText
  8
0
 62
256
370
40
  6
DASHEDX2
 10
203.000000000004178
 20
-3.8000000000000784
 30
0.0
 40
5.0
 41
100.0
 71
5
 72
2
  1
b
  7
symbol
 50
0.0
 73
0
 44
1.0
  0
MTEXT
  5
5E
100
AcDbEntity
100
AcDbMText
  8
0
 62
256
370
40
  6
DASHEDX2
 10
196.2000000000040529
 20
-6.6000000000001364
 30
0.0
 40
2.0
 41
100.0
 71
5
 72
2
  1
2
  7
symbol
 50
0.0
 73
0
 44
1.0
  0
MTEXT
  5
5F
100
AcDbEntity
100
AcDbMText
  8
0
 62
256
370
40
  6
DASHEDX2
 10
205.8000000000042462
 20
-6.4000000000001318
 30
0.0
 40
2.0
 41
100.0
 71
5
 72
2
  1
1
  7
symbol
 50
0.0
 73
0
 44
1.0
  0
LINE
  5
60
100
AcDbEntity
100
AcDbLine
  8
0
 62
256
370
40
  6
DASHEDX2
 10
197.5910400000041705
 20
-2.7033600000000568
 30
0.0
 11
200.2944000000042308
 21
-4.7513600000001004
 31
0.0
  0
LINE
  5
61
100
AcDbEntity
100
AcDbLine
  8
0
 62
256
370
40
  6
DASHEDX2
 10
200.2944000000042308
 20
-4.7513600000001004
 30
0.0
 11
197.6729600000041671
 21
-6.3897600000001349
 31
0.0
  0
MTEXT
  5
62
100
AcDbEntity
100
AcDbMText
  8
0
 62
256
370
40
  6
DASHEDX2
 10
127.3600000000027563
 20
27.3600000000005927
 30
0.0
 40
2.0
 41
100.0
 71
5
 72
2
  1

  7
symbol
 50
0.0
 73
0
 44
1.0
  0
MTEXT
  5
63
100
AcDbEntity
100
AcDbMText
  8
0
 62
256
370
40
  6
DASHEDX2
 10
210.4000000000045532
 20
-31.3600000000006816
 30
0.0
 40
5.0
 41
100.0
 71
5
 72
2
  1
v
  7
symbol
 50
0.0
 73
0
 44
1.0
  0
MTEXT
  5
64
100
AcDbEntity
100
AcDbMText
  8
0
 62
256
370
40
  6
DASHEDX2
 10
231.5200000000050125
 20
-42.4000000000009152
 30
0.0
 40
5.0
 41
100.0
 71
5
 72
2
  1
l
  7
symbol
 50
0.0
 73
0
 44
1.0
  0
MTEXT
  5
65
100
AcDbEntity
100
AcDbMText
  8
0
 62
256
370
40
  6
DASHEDX2
 10
231.5200000000050125
 20
-42.4000000000009152
 30
0.0
 40
5.0
 41
100.0
 71
5
 72
2
  1
l
  7
symbol
 50
0.0
 73
0
 44
1.0
  0
MTEXT
  5
66
100
AcDbEntity
100
AcDbMText
  8
0
 62
256
370
40
  6
DASHEDX2
 10
273.9200000000059276
 20
-26.0800000000005632
 30
0.0
 40
5.0
 41
100.0
 71
5
 72
2
  1
l
  7
symbol
 50
0.0
 73
0
 44
1.0
  0
LINE
  5
67
100
AcDbEntity
100
AcDbLine
  8
0
 62
256
370
40
  6
ByLayer
 10
145.9375000000014211
 20
-29.6875000000002913
 30
0.0
 11
279.200000000006014
 21
-29.7600000000006446
 31
0.0
  0
LEADER
  5
68
  8
0
 62
256
370
40
  6
DASHEDX2
100
AcDbEntity
100
AcDbLeader
  3
Standard
 71
1
 72
0
 73
3
 74
0
 75
0
 40
1.0
 41
10.0
 76
2
 10
278.8617216000062626
 20
-29.779558400000667
 10
263.8217216000059011
 20
-29.779558400000667
  0
MTEXT
  5
69
100
AcDbEntity
100
AcDbMText
  8
0
 62
256
370
40
  6
DASHEDX2
 10
150.7812500000034959
 20
30.8593750000007176
 30
0.0
 40
5.0
 41
100.0
 71
5
 72
2
  1
A
  7
normal
 50
0.0
 73
0
 44
1.0
  0
MTEXT
  5
6A
100
AcDbEntity
100
AcDbMText
  8
0
 62
256
370
40
  6
DASHEDX2
 10
140.6250000000032685
 20
1.1718750000000273
 30
0.0
 40
5.0
 41
100.0
 71
5
 72
2
  1
A
  7
normal
 50
0.0
 73
0
 44
1.0
  0
MTEXT
  5
6B
100
AcDbEntity
100
AcDbMText
  8
0
 62
256
370
40
  6
DASHEDX2
 10
143.5200000000033924
 20
-1.7600000000000415
 30
0.0
 40
2.0
 41
100.0
 71
5
 72
2
  1
O
  7
normal
 50
0.0
 73
0
 44
1.0
  0
MTEXT
  5
6C
100
AcDbEntity
100
AcDbMText
  8
0
 62
256
370
40
  6
DASHEDX2
 10
213.1200000000050352
 20
-33.9200000000007975
 30
0.0
 40
2.0
 41
100.0
 71
5
 72
2
  1
O
  7
normal
 50
0.0
 73
0
 44
1.0
  0
SPLINE
  5
6D
  8
0
 62
256
370
40
  6
ByLayer
100
AcDbEntity
100
AcDbSpline
 70
8
 71
3
 72
14
 73
10
 74
0
 40
0.0
 40
0.0
 40
0.0
 40
0.0
 40
0.1428571428571428
 40
0.2857142857142857
 40
0.4285714285714285
 40
0.5714285714285714
 40
0.7142857142857143
 40
0.8571428571428571
 40
1.0
 40
1.0
 40
1.0
 40
1.0
 10
212.4800000000051909
 20
32.8960000000008037
 30
0.0
 10
212.7360000000051912
 20
25.9840000000006341
 30
0.0
 10
212.8640000000043528
 20
21.2480000000004345
 30
0.0
 10
221.1840000000045166
 20
11.5200000000002358
 30
0.0
 10
228.6080000000046653
 20
5.8880000000001207
 30
0.0
 10
236.2880000000058374
 20
-1.4080000000000348
 30
0.0
 10
243.7120000000049913
 20
-6.7840000000001393
 30
0.0
 10
254.3360000000052139
 20
-13.0560000000002674
 30
0.0
 10
261.7500000000051159
 20
-14.7500000000002895
 30
0.0
 10
263.5000000000051728
 20
-15.0000000000002949
 30
0.0
  0
SPLINE
  5
6E
  8
0
 62
256
370
40
  6
ByLayer
100
AcDbEntity
100
AcDbSpline
 70
8
 71
3
 72
15
 73
11
 74
0
 40
0.0
 40
0.0
 40
0.0
 40
0.0
 40
0.125
 40
0.25
 40
0.375
 40
0.5
 40
0.625
 40
0.75
 40
0.875
 40
1.0
 40
1.0
 40
1.0
 40
1.0
 10
145.6128000000028351
 20
0.102400000000002
 30
0.0
 10
158.592000000003253
 20
1.9200000000000392
 30
0.0
 10
163.8400000000033572
 20
3.0720000000000627
 30
0.0
 10
171.9040000000035207
 20
4.4800000000000919
 30
0.0
 10
182.0160000000037144
 20
8.5760000000001764
 30
0.0
 10
193.0240000000039515
 20
14.3360000000002934
 30
0.0
 10
198.5536000000054173
 20
17.7152000000004826
 30
0.0
 10
203.2640000000055522
 20
20.2752000000005523
 30
0.0
 10
205.4144000000055996
 20
22.937600000000625
 30
0.0
 10
208.0768000000056759
 20
26.2144000000007154
 30
0.0
 10
208.5888000000057048
 20
32.5632000000008901
 30
0.0
  0
SPLINE
  5
6F
  8
0
 62
256
370
40
  6
ByLayer
100
AcDbEntity
100
AcDbSpline
 70
8
 71
3
 72
22
 73
18
 74
0
 40
0.0
 40
0.0
 40
0.0
 40
0.0
 40
0.0666666666666667
 40
0.1333333333333333
 40
0.2
 40
0.2666666666666667
 40
0.3333333333333333
 40
0.4
 40
0.4666666666666667
 40
0.5333333333333333
 40
0.6
 40
0.6666666666666666
 40
0.7333333333333333
 40
0.8
 40
0.8666666666666667
 40
0.9333333333333333
 40
1.0
 40
1.0
 40
1.0
 40
1.0
 10
145.6250000000021032
 20
0.0
 30
0.0
 10
157.5936000000040451
 20
0.5120000000000133
 30
0.0
 10
163.8400000000042098
 20
0.8192000000000208
 30
0.0
 10
171.5200000000043872
 20
1.3312000000000337
 30
0.0
 10
180.0192000000046164
 20
1.3312000000000337
 30
0.0
 10
189.235200000004852
 20
1.7408000000000445
 30
0.0
 10
195.9936000000050171
 20
2.9696000000000762
 30
0.0
 10
200.2944000000051403
 20
4.1984000000001078
 30
0.0
 10
204.2880000000052405
 20
2.2528000000000579
 30
0.0
 10
207.3600000000031116
 20
-0.3840000000000058
 30
0.0
 10
210.3296000000060815
 20
-3.4816000000001006
 30
0.0
 10
215.2448000000062223
 20
-6.4512000000001866
 30
0.0
 10
221.0816000000064037
 20
-9.2160000000002658
 30
0.0
 10
228.5568000000066036
 20
-12.2880000000003555
 30
0.0
 10
238.6944000000069082
 20
-15.5648000000004494
 30
0.0
 10
245.2480000000036853
 20
-17.5360000000002643
 30
0.0
 10
255.7440000000038367
 20
-21.2480000000003173
 30
0.0
 10
263.1680000000039286
 20
-22.1440000000003323
 30
0.0
  0
SPLINE
  5
70
  8
0
 62
256
370
40
  6
ByLayer
100
AcDbEntity
100
AcDbSpline
 70
8
 71
3
 72
24
 73
20
 74
0
 40
0.0
 40
0.0
 40
0.0
 40
0.0
 40
0.0588235294117647
 40
0.1176470588235294
 40
0.1764705882352941
 40
0.2352941176470588
 40
0.2941176470588235
 40
0.3529411764705883
 40
0.4117647058823529
 40
0.4705882352941176
 40
0.5294117647058824
 40
0.5882352941176471
 40
0.6470588235294118
 40
0.7058823529411765
 40
0.7647058823529411
 40
0.8235294117647058
 40
0.8823529411764706
 40
0.9411764705882353
 40
1.0
 40
1.0
 40
1.0
 40
1.0
 10
145.6128000000025509
 20
0.0
 30
0.0
 10
163.7376000000041927
 20
1.638400000000042
 30
0.0
 10
174.3872000000044693
 20
2.3552000000000604
 30
0.0
 10
186.40000000000353
 20
5.1200000000000969
 30
0.0
 10
192.4800000000036277
 20
8.1600000000001547
 30
0.0
 10
197.3248000000034494
 20
11.3664000000001977
 30
0.0
 10
201.0112000000034982
 20
13.5168000000002362
 30
0.0
 10
204.1856000000035749
 20
15.4624000000002706
 30
0.0
 10
207.9744000000036408
 20
15.872000000000277
 30
0.0
 10
212.2752000000037071
 20
12.6976000000002216
 30
0.0
 10
214.8761600000038356
 20
8.683520000000156
 30
0.0
 10
218.6444800000039095
 20
4.9152000000000884
 30
0.0
 10
224.0512000000065598
 20
0.409600000000012
 30
0.0
 10
232.857600000006812
 20
-5.1200000000001502
 30
0.0
 10
238.8787200000042787
 20
-8.4377600000001518
 30
0.0
 10
245.3504000000043845
 20
-12.2880000000002205
 30
0.0
 10
250.3680000000043719
 20
-14.7456000000002572
 30
0.0
 10
256.9216000000045028
 20
-16.8960000000002957
 30
0.0
 10
261.0176000000045633
 20
-18.6368000000003242
 30
0.0
 10
263.4752000000045769
 20
-19.3536000000003376
 30
0.0
  0
ENDSEC
  0
SECTION
  2
OBJECTS
  0
DICTIONARY
  5
C
100
AcDbDictionary
280
0
281
1
  3
ACAD_GROUP
350
D
  3
ACAD_LAYOUT
350
1A
  3
ACAD_MLINESTYLE
350
17
  3
ACAD_PLOTSETTINGS
350
19
  3
ACAD_PLOTSTYLENAME
350
E
  3
AcDbVariableDictionary
350
71
  0
DICTIONARY
  5
D
100
AcDbDictionary
280
0
281
1
  0
ACDBDICTIONARYWDFLT
  5
E
100
AcDbDictionary
281
1
  3
Normal
350
F
100
AcDbDictionaryWithDefault
340
F
  0
ACDBPLACEHOLDER
  5
F
  0
DICTIONARY
  5
17
100
AcDbDictionary
280
0
281
1
  3
Standard
350
18
  0
MLINESTYLE
  5
18
100
AcDbMlineStyle
  2
STANDARD
 70
0
  3

 62
256
 51
90.0
 52
90.0
 71
2
 49
0.5
 62
256
  6
BYLAYER
 49
-0.5
 62
256
  6
BYLAYER
  0
DICTIONARY
  5
19
100
AcDbDictionary
280
0
281
1
  0
DICTIONARY
  5
1A
100
AcDbDictionary
281
1
  3
Layout1
350
1E
  3
Layout2
350
26
  3
Model
350
22
  0
LAYOUT
  5
1E
100
AcDbPlotSettings
  1

  2
C:\Program Files\AutoCAD 2002\plotters\DWF ePlot (optimized for plotting).pc3
  4

  6

 40
0.0
 41
0.0
 42
0.0
 43
0.0
 44
0.0
 45
0.0
 46
0.0
 47
0.0
 48
0.0
 49
0.0
140
0.0
141
0.0
142
1.0
143
1.0
 70
688
 72
0
 73
0
 74
5
  7

 75
16
147
1.0
148
0.0
149
0.0
100
AcDbLayout
  1
Layout1
 70
1
 71
1
 10
0.0
 20
0.0
 11
420.0
 21
297.0
 12
0.0
 22
0.0
 32
0.0
 14
100000000000000000000.0
 24
100000000000000000000.0
 34
100000000000000000000.0
 15
-100000000000000000000.0
 25
-100000000000000000000.0
 35
-100000000000000000000.0
146
0.0
 13
0.0
 23
0.0
 33
0.0
 16
1.0
 26
0.0
 36
0.0
 17
0.0
 27
1.0
 37
0.0
 76
0
330
1B
  0
LAYOUT
  5
22
100
AcDbPlotSettings
  1

  2
C:\Program Files\AutoCAD 2002\plotters\DWF ePlot (optimized for plotting).pc3
  4

  6

 40
0.0
 41
0.0
 42
0.0
 43
0.0
 44
0.0
 45
0.0
 46
0.0
 47
0.0
 48
0.0
 49
0.0
140
0.0
141
0.0
142
1.0
143
1.0
 70
1712
 72
0
 73
0
 74
0
  7

 75
0
147
1.0
148
0.0
149
0.0
100
AcDbLayout
  1
Model
 70
1
 71
0
 10
0.0
 20
0.0
 11
12.0
 21
9.0
 12
0.0
 22
0.0
 32
0.0
 14
0.0
 24
0.0
 34
0.0
 15
0.0
 25
0.0
 35
0.0
146
0.0
 13
0.0
 23
0.0
 33
0.0
 16
1.0
 26
0.0
 36
0.0
 17
0.0
 27
1.0
 37
0.0
 76
0
330
1F
  0
LAYOUT
  5
26
100
AcDbPlotSettings
  1

  2
C:\Program Files\AutoCAD 2002\plotters\DWF ePlot (optimized for plotting).pc3
  4

  6

 40
0.0
 41
0.0
 42
0.0
 43
0.0
 44
0.0
 45
0.0
 46
0.0
 47
0.0
 48
0.0
 49
0.0
140
0.0
141
0.0
142
1.0
143
1.0
 70
688
 72
0
 73
0
 74
5
  7

 75
16
147
1.0
148
0.0
149
0.0
100
AcDbLayout
  1
Layout2
 70
1
 71
2
 10
0.0
 20
0.0
 11
12.0
 21
9.0
 12
0.0
 22
0.0
 32
0.0
 14
0.0
 24
0.0
 34
0.0
 15
0.0
 25
0.0
 35
0.0
146
0.0
 13
0.0
 23
0.0
 33
0.0
 16
1.0
 26
0.0
 36
0.0
 17
0.0
 27
1.0
 37
0.0
 76
0
330
23
  0
DICTIONARY
  5
71
100
AcDbDictionary
281
1
  3
DIMASSOC
350
73
  3
HIDETEXT
350
72
  0
DICTIONARYVAR
  5
72
100
DictionaryVariables
280
0
  1
2
  0
DICTIONARYVAR
  5
73
100
DictionaryVariables
280
0
  1
1
  0
ENDSEC
  0
EOF
