999
dxflib 2.0.4.8
  0
SECTION
  2
HEADER
  9
$ACADVER
  1
AC1015
  9
$HANDSEED
  5
FFFF
  9
$DIMASZ
 40
2.5
  9
$DIMGAP
 40
0.625
  9
$DIMEXO
 40
0.625
  9
$INSUNITS
 70
4
  9
$DIMTXT
 40
2.5
  9
$PLIMMAX
 10
210.0
 20
297.0
  9
$PLIMMIN
 10
0.0
 20
0.0
  9
$DIMEXE
 40
1.25
  0
ENDSEC
  0
SECTION
  2
TABLES
  0
TABLE
  2
VPORT
  5
8
100
AcDbSymbolTable
 70
1
  0
VPORT
  5
30
100
AcDbSymbolTableRecord
100
AcDbViewportTableRecord
  2
*Active
 70
0
 10
0.0
 20
0.0
 11
1.0
 21
1.0
 12
286.3055555555554861
 22
148.5
 13
0.0
 23
0.0
 14
10.0
 24
10.0
 15
10.0
 25
10.0
 16
0.0
 26
0.0
 36
1.0
 17
0.0
 27
0.0
 37
0.0
 40
297.0
 41
1.92798353909465
 42
50.0
 43
0.0
 44
0.0
 50
0.0
 51
0.0
 71
0
 72
100
 73
1
 74
3
 75
1
 76
1
 77
0
 78
0
281
0
 65
1
110
0.0
120
0.0
130
0.0
111
1.0
121
0.0
131
0.0
112
0.0
122
1.0
132
0.0
 79
0
146
0.0
  0
ENDTAB
  0
TABLE
  2
LTYPE
  5
5
100
AcDbSymbolTable
 70
21
  0
LTYPE
  5
14
100
AcDbSymbolTableRecord
100
AcDbLinetypeTableRecord
  2
ByBlock
 70
0
  3

 72
65
 73
0
 40
0.0
  0
LTYPE
  5
15
100
AcDbSymbolTableRecord
100
AcDbLinetypeTableRecord
  2
ByLayer
 70
0
  3

 72
65
 73
0
 40
0.0
  0
LTYPE
  5
16
100
AcDbSymbolTableRecord
100
AcDbLinetypeTableRecord
  2
CONTINUOUS
 70
0
  3
Solid line
 72
65
 73
0
 40
0.0
  0
LTYPE
  5
31
100
AcDbSymbolTableRecord
100
AcDbLinetypeTableRecord
  2
DOT
 70
0
  3
Dot . . . . . . . . . . . . . . . . . . . . . .
 72
65
 73
2
 40
6.3499999999999996
 49
0.0
 74
0
 49
-6.3499999999999996
 74
0
  0
LTYPE
  5
32
100
AcDbSymbolTableRecord
100
AcDbLinetypeTableRecord
  2
DOT2
 70
0
  3
Dot (.5x) .....................................
 72
65
 73
2
 40
3.1749999999999998
 49
0.0
 74
0
 49
-3.1749999999999998
 74
0
  0
LTYPE
  5
33
100
AcDbSymbolTableRecord
100
AcDbLinetypeTableRecord
  2
DOTX2
 70
0
  3
Dot (2x) .  .  .  .  .  .  .  .  .  .  .  .  .
 72
65
 73
2
 40
12.6999999999999993
 49
0.0
 74
0
 49
-12.6999999999999993
 74
0
  0
LTYPE
  5
34
100
AcDbSymbolTableRecord
100
AcDbLinetypeTableRecord
  2
DASHED
 70
0
  3
Dashed __ __ __ __ __ __ __ __ __ __ __ __ __ _
 72
65
 73
2
 40
19.0500000000000007
 49
12.6999999999999993
 74
0
 49
-6.3499999999999996
 74
0
  0
LTYPE
  5
35
100
AcDbSymbolTableRecord
100
AcDbLinetypeTableRecord
  2
DASHED2
 70
0
  3
Dashed (.5x) _ _ _ _ _ _ _ _ _ _ _ _ _ _ _ _ _
 72
65
 73
2
 40
9.5250000000000004
 49
6.3499999999999996
 74
0
 49
-3.1749999999999998
 74
0
  0
LTYPE
  5
36
100
AcDbSymbolTableRecord
100
AcDbLinetypeTableRecord
  2
DASHEDX2
 70
0
  3
Dashed (2x) ____  ____  ____  ____  ____  ___
 72
65
 73
2
 40
38.1000000000000014
 49
25.3999999999999986
 74
0
 49
-12.6999999999999993
 74
0
  0
LTYPE
  5
37
100
AcDbSymbolTableRecord
100
AcDbLinetypeTableRecord
  2
DASHDOT
 70
0
  3
Dash dot __ . __ . __ . __ . __ . __ . __ . __
 72
65
 73
4
 40
25.3999999999999986
 49
12.6999999999999993
 74
0
 49
-6.3499999999999996
 74
0
 49
0.0
 74
0
 49
-6.3499999999999996
 74
0
  0
LTYPE
  5
38
100
AcDbSymbolTableRecord
100
AcDbLinetypeTableRecord
  2
DASHDOT2
 70
0
  3
Dash dot (.5x) _._._._._._._._._._._._._._._.
 72
65
 73
4
 40
12.6999999999999993
 49
6.3499999999999996
 74
0
 49
-3.1749999999999998
 74
0
 49
0.0
 74
0
 49
-3.1749999999999998
 74
0
  0
LTYPE
  5
39
100
AcDbSymbolTableRecord
100
AcDbLinetypeTableRecord
  2
DASHDOTX2
 70
0
  3
Dash dot (2x) ____  .  ____  .  ____  .  ___
 72
65
 73
4
 40
50.7999999999999972
 49
25.3999999999999986
 74
0
 49
-12.6999999999999993
 74
0
 49
0.0
 74
0
 49
-12.6999999999999993
 74
0
  0
LTYPE
  5
3A
100
AcDbSymbolTableRecord
100
AcDbLinetypeTableRecord
  2
DIVIDE
 70
0
  3
Divide ____ . . ____ . . ____ . . ____ . . ____
 72
65
 73
6
 40
31.75
 49
12.6999999999999993
 74
0
 49
-6.3499999999999996
 74
0
 49
0.0
 74
0
 49
-6.3499999999999996
 74
0
 49
0.0
 74
0
 49
-6.3499999999999996
 74
0
  0
LTYPE
  5
3B
100
AcDbSymbolTableRecord
100
AcDbLinetypeTableRecord
  2
DIVIDE2
 70
0
  3
Divide (.5x) __..__..__..__..__..__..__..__.._
 72
65
 73
6
 40
15.875
 49
6.3499999999999996
 74
0
 49
-3.1749999999999998
 74
0
 49
0.0
 74
0
 49
-3.1749999999999998
 74
0
 49
0.0
 74
0
 49
-3.1749999999999998
 74
0
  0
LTYPE
  5
3C
100
AcDbSymbolTableRecord
100
AcDbLinetypeTableRecord
  2
DIVIDEX2
 70
0
  3
Divide (2x) ________  .  .  ________  .  .  _
 72
65
 73
6
 40
63.5
 49
25.3999999999999986
 74
0
 49
-12.6999999999999993
 74
0
 49
0.0
 74
0
 49
-12.6999999999999993
 74
0
 49
0.0
 74
0
 49
-12.6999999999999993
 74
0
  0
LTYPE
  5
3D
100
AcDbSymbolTableRecord
100
AcDbLinetypeTableRecord
  2
CENTER
 70
0
  3
Center ____ _ ____ _ ____ _ ____ _ ____ _ ____
 72
65
 73
4
 40
50.7999999999999972
 49
31.75
 74
0
 49
-6.3499999999999996
 74
0
 49
6.3499999999999996
 74
0
 49
-6.3499999999999996
 74
0
  0
LTYPE
  5
3E
100
AcDbSymbolTableRecord
100
AcDbLinetypeTableRecord
  2
CENTER2
 70
0
  3
Center (.5x) ___ _ ___ _ ___ _ ___ _ ___ _ ___
 72
65
 73
4
 40
28.5749999999999993
 49
19.0500000000000007
 74
0
 49
-3.1749999999999998
 74
0
 49
3.1749999999999998
 74
0
 49
-3.1749999999999998
 74
0
  0
LTYPE
  5
3F
100
AcDbSymbolTableRecord
100
AcDbLinetypeTableRecord
  2
CENTERX2
 70
0
  3
Center (2x) ________  __  ________  __  _____
 72
65
 73
4
 40
101.5999999999999943
 49
63.5
 74
0
 49
-12.6999999999999993
 74
0
 49
12.6999999999999993
 74
0
 49
-12.6999999999999993
 74
0
  0
LTYPE
  5
40
100
AcDbSymbolTableRecord
100
AcDbLinetypeTableRecord
  2
BORDER
 70
0
  3
Border __ __ . __ __ . __ __ . __ __ . __ __ .
 72
65
 73
6
 40
44.4500000000000028
 49
12.6999999999999993
 74
0
 49
-6.3499999999999996
 74
0
 49
12.6999999999999993
 74
0
 49
-6.3499999999999996
 74
0
 49
0.0
 74
0
 49
-6.3499999999999996
 74
0
  0
LTYPE
  5
41
100
AcDbSymbolTableRecord
100
AcDbLinetypeTableRecord
  2
BORDER2
 70
0
  3
Border (.5x) __.__.__.__.__.__.__.__.__.__.__.
 72
65
 73
6
 40
22.2250000000000014
 49
6.3499999999999996
 74
0
 49
-3.1749999999999998
 74
0
 49
6.3499999999999996
 74
0
 49
-3.1749999999999998
 74
0
 49
0.0
 74
0
 49
-3.1749999999999998
 74
0
  0
LTYPE
  5
42
100
AcDbSymbolTableRecord
100
AcDbLinetypeTableRecord
  2
BORDERX2
 70
0
  3
Border (2x) ____  ____  .  ____  ____  .  ___
 72
65
 73
6
 40
88.9000000000000057
 49
25.3999999999999986
 74
0
 49
-12.6999999999999993
 74
0
 49
25.3999999999999986
 74
0
 49
-12.6999999999999993
 74
0
 49
0.0
 74
0
 49
-12.6999999999999993
 74
0
  0
ENDTAB
  0
TABLE
  2
LAYER
  5
2
100
AcDbSymbolTable
 70
1
  0
LAYER
  5
10
100
AcDbSymbolTableRecord
100
AcDbLayerTableRecord
  2
0
 70
0
 62
7
  6
CONTINUOUS
370
0
390
F
  0
ENDTAB
  0
TABLE
  2
STYLE
  5
3
100
AcDbSymbolTable
 70
1
  0
STYLE
  5
11
100
AcDbSymbolTableRecord
100
AcDbTextStyleTableRecord
  2
Standard
 70
0
 40
0.0
 41
0.75
 50
0.0
 71
0
 42
2.5
  3
txt
  4

  0
ENDTAB
  0
TABLE
  2
VIEW
  5
6
100
AcDbSymbolTable
 70
0
  0
ENDTAB
  0
TABLE
  2
UCS
  5
7
100
AcDbSymbolTable
 70
0
  0
ENDTAB
  0
TABLE
  2
APPID
  5
9
100
AcDbSymbolTable
 70
1
  0
APPID
  5
12
100
AcDbSymbolTableRecord
100
AcDbRegAppTableRecord
  2
ACAD
 70
0
  0
ENDTAB
  0
TABLE
  2
DIMSTYLE
  5
A
100
AcDbSymbolTable
 70
1
100
AcDbDimStyleTable
 71
0
  0
DIMSTYLE
105
27
100
AcDbSymbolTableRecord
100
AcDbDimStyleTableRecord
  2
Standard
 41
2.5
 42
0.625
 43
3.75
 44
1.25
 70
0
 73
0
 74
0
 77
1
 78
8
140
2.5
141
2.5
143
0.03937007874016
147
0.625
171
3
172
1
271
2
272
2
274
3
278
44
283
0
284
8
340
11
  0
ENDTAB
  0
TABLE
  2
BLOCK_RECORD
  5
1
100
AcDbSymbolTable
 70
1
  0
BLOCK_RECORD
  5
1F
100
AcDbSymbolTableRecord
100
AcDbBlockTableRecord
  2
*Model_Space
340
22
  0
BLOCK_RECORD
  5
1B
100
AcDbSymbolTableRecord
100
AcDbBlockTableRecord
  2
*Paper_Space
340
1E
  0
BLOCK_RECORD
  5
23
100
AcDbSymbolTableRecord
100
AcDbBlockTableRecord
  2
*Paper_Space0
340
26
  0
ENDTAB
  0
ENDSEC
  0
SECTION
  2
BLOCKS
  0
BLOCK
  5
20
100
AcDbEntity
  8
0
100
AcDbBlockBegin
  2
*Model_Space
 70
0
 10
0.0
 20
0.0
 30
0.0
  3
*Model_Space
  1

  0
ENDBLK
  5
21
100
AcDbEntity
  8
0
100
AcDbBlockEnd
  0
BLOCK
  5
1C
100
AcDbEntity
 67
1
  8
0
100
AcDbBlockBegin
  2
*Paper_Space
 70
0
 10
0.0
 20
0.0
 30
0.0
  3
*Paper_Space
  1

  0
ENDBLK
  5
1D
100
AcDbEntity
 67
1
  8
0
100
AcDbBlockEnd
  0
BLOCK
  5
24
100
AcDbEntity
  8
0
100
AcDbBlockBegin
  2
*Paper_Space0
 70
0
 10
0.0
 20
0.0
 30
0.0
  3
*Paper_Space0
  1

  0
ENDBLK
  5
25
100
AcDbEntity
  8
0
100
AcDbBlockEnd
  0
ENDSEC
  0
SECTION
  2
ENTITIES
  0
MTEXT
  5
43
100
AcDbEntity
100
AcDbMText
  8
0
 62
256
370
40
  6
CONTINUOUS
 10
15.2000000000001645
 20
-2.8000000000000305
 30
0.0
 40
6.0
 41
100.0
 71
5
 72
0
  1
a
  7
normal
 50
0.0
 73
1
 44
1.0
  0
MTEXT
  5
44
100
AcDbEntity
100
AcDbMText
  8
0
 62
256
370
40
  6
CONTINUOUS
 10
30.0000000000003268
 20
-5.2000000000000561
 30
0.0
 40
6.0
 41
100.0
 71
5
 72
0
  1
/r=4/3
  7
symbol
 50
0.0
 73
1
 44
1.0
  0
SPLINE
  5
45
  8
0
 62
256
370
40
  6
CONTINUOUS
100
AcDbEntity
100
AcDbSpline
 70
8
 71
3
 72
21
 73
17
 74
0
 40
0.0
 40
0.0
 40
0.0
 40
0.0
 40
0.0714285714285714
 40
0.1428571428571428
 40
0.2142857142857143
 40
0.2857142857142857
 40
0.3571428571428572
 40
0.4285714285714285
 40
0.5
 40
0.5714285714285714
 40
0.6428571428571429
 40
0.7142857142857143
 40
0.7857142857142857
 40
0.8571428571428571
 40
0.9285714285714286
 40
1.0
 40
1.0
 40
1.0
 40
1.0
 10
40.1394892800006886
 20
29.9473305600005126
 30
0.0
 10
41.1461222400007074
 20
30.9120204800005283
 30
0.0
 10
42.1108121600007195
 20
32.2541977600005509
 30
0.0
 10
43.4529894400007421
 20
33.5124889600005744
 30
0.0
 10
44.2499072000007558
 20
34.4771788800005936
 30
0.0
 10
45.5501414400007789
 20
34.9385523200005963
 30
0.0
 10
46.7245465600008032
 20
34.5610649600005928
 30
0.0
 10
47.7311795200008149
 20
34.099691520000583
 30
0.0
 10
49.2411289600008431
 20
32.8414003200005595
 30
0.0
 10
49.7444454400008951
 20
31.7508812800005735
 30
0.0
 10
50.2058188800008622
 20
30.450647040000522
 30
0.0
 10
49.9961036800008571
 20
29.8634444800005134
 30
0.0
 10
48.82169856000084
 20
28.5212672000004872
 30
0.0
 10
47.6472934400008157
 20
27.4307481600004692
 30
0.0
 10
46.6826035200007965
 20
26.4660582400004536
 30
0.0
 10
45.2984832000007742
 20
25.1658240000004305
 30
0.0
 10
44.6273945600007664
 20
24.4527923200004196
 30
0.0
  0
SPLINE
  5
46
  8
0
 62
256
370
40
  6
CONTINUOUS
100
AcDbEntity
100
AcDbSpline
 70
8
 71
3
 72
14
 73
10
 74
0
 40
0.0
 40
0.0
 40
0.0
 40
0.0
 40
0.1428571428571428
 40
0.2857142857142857
 40
0.4285714285714285
 40
0.5714285714285714
 40
0.7142857142857143
 40
0.8571428571428571
 40
1.0
 40
1.0
 40
1.0
 40
1.0
 10
29.9842404352005474
 20
30.0647710720005499
 30
0.0
 10
31.5411660800011546
 20
32.8564998144012037
 30
0.0
 10
32.8833433600014331
 20
34.5610649600015023
 30
0.0
 10
34.6868940800005916
 20
34.9385523200005963
 30
0.0
 10
35.1482675200006014
 20
34.9804953600005959
 30
0.0
 10
36.3139484876815573
 20
34.982508625921497
 30
0.0
 10
37.3318557368333188
 20
34.3597383680012101
 30
0.0
 10
38.4829069721615369
 20
32.9853488332813214
 30
0.0
 10
39.7620019200015236
 20
31.7089382400012134
 30
0.0
 10
40.8236641484816332
 20
30.6016419840012226
 30
0.0
  0
SPLINE
  5
47
  8
0
 62
256
370
40
  6
CONTINUOUS
100
AcDbEntity
100
AcDbSpline
 70
8
 71
3
 72
21
 73
17
 74
0
 40
0.0
 40
0.0
 40
0.0
 40
0.0
 40
0.0714285714285714
 40
0.1428571428571428
 40
0.2142857142857143
 40
0.2857142857142857
 40
0.3571428571428572
 40
0.4285714285714285
 40
0.5
 40
0.5714285714285714
 40
0.6428571428571429
 40
0.7142857142857143
 40
0.7857142857142857
 40
0.8571428571428571
 40
0.9285714285714286
 40
1.0
 40
1.0
 40
1.0
 40
1.0
 10
20.0264048102082945
 20
29.6718088549375274
 30
0.0
 10
18.9937246715216688
 20
30.6085629790624623
 30
0.0
 10
17.9926316552665
 20
31.9238117256891165
 30
0.0
 10
16.6164907428762305
 20
33.1448656901769496
 30
0.0
 10
15.7934471118067972
 20
34.0873643582445069
 30
0.0
 10
14.9422080000006741
 20
34.9962240000015825
 30
0.0
 10
13.3174385043470878
 20
34.1034333427998533
 30
0.0
 10
12.3238212644521425
 20
33.6146592151300538
 30
0.0
 10
10.8489056732476108
 20
32.315479453058721
 30
0.0
 10
10.3756496834539362
 20
31.2115827079930561
 30
0.0
 10
9.9500655391237665
 20
29.8991983640981687
 30
0.0
 10
10.1757867697729161
 20
29.3179606867101121
 30
0.0
 10
11.3865162936453679
 20
28.0084564840230144
 30
0.0
 10
12.5903523647898581
 20
26.9505160904770307
 30
0.0
 10
13.581105201953104
 20
26.0126130575614489
 30
0.0
 10
15.0003223246548174
 20
24.7507807003381508
 30
0.0
 10
15.6906905984259293
 20
24.0563991150473377
 30
0.0
  0
SPLINE
  5
48
  8
0
 62
256
370
40
  6
CONTINUOUS
100
AcDbEntity
100
AcDbSpline
 70
8
 71
3
 72
14
 73
10
 74
0
 40
0.0
 40
0.0
 40
0.0
 40
0.0
 40
0.1428571428571428
 40
0.2857142857142857
 40
0.4285714285714285
 40
0.5714285714285714
 40
0.7142857142857143
 40
0.8571428571428571
 40
1.0
 40
1.0
 40
1.0
 40
1.0
 10
30.1746261104603661
 20
30.0673790949493132
 30
0.0
 10
28.5418133089804158
 20
32.8154127901406483
 30
0.0
 10
27.1534480070856432
 20
34.4825732428382707
 30
0.0
 10
25.3402338624861372
 20
34.8105158786647806
 30
0.0
 10
24.8778846369401592
 20
34.839805183520312
 30
0.0
 10
23.7125859253775744
 20
34.80988722095843
 30
0.0
 10
22.7121196278495781
 20
34.1594680103439003
 30
0.0
 10
21.5991477498458906
 20
32.7540644603728879
 30
0.0
 10
20.3554963548228969
 20
31.4430956980124563
 30
0.0
 10
19.3245636906641707
 20
30.3071337585516787
 30
0.0
  0
LINE
  5
49
100
AcDbEntity
100
AcDbLine
  8
0
 62
256
370
40
  6
CONTINUOUS
 10
22.8835857530891005
 20
34.2738390220816456
 30
0.0
 11
10.3293963468804879
 21
20.7017423667209783
 31
0.0
  0
LINE
  5
4A
100
AcDbEntity
100
AcDbLine
  8
0
 62
256
370
40
  6
CONTINUOUS
 10
38.3107727360017236
 20
33.1917085900814541
 30
0.0
 11
50.1219328000024476
 21
20.9295769600010217
 31
0.0
  0
LINE
  5
4B
100
AcDbEntity
100
AcDbLine
  8
0
 62
256
370
40
  6
CONTINUOUS
 10
19.997367730177146
 20
19.9458281226251444
 30
0.0
 11
29.9788717260808966
 21
29.9101522493448932
 31
0.0
  0
LINE
  5
4C
100
AcDbEntity
100
AcDbLine
  8
0
 62
256
370
40
  6
CONTINUOUS
 10
19.9930727628811091
 20
19.9715979264011096
 30
0.0
 11
14.8444807168003408
 21
24.9644974080005717
 31
0.0
  0
LINE
  5
4D
100
AcDbEntity
100
AcDbLine
  8
0
 62
256
370
40
  6
CONTINUOUS
 10
30.0862459084816365
 20
19.9501230899210853
 30
0.0
 11
40.1837140213772699
 21
29.9616918568969481
 31
0.0
  0
LINE
  5
4E
100
AcDbEntity
100
AcDbLine
  8
0
 62
256
370
40
  6
CONTINUOUS
 10
39.9968829440021025
 20
19.9179108352010488
 30
0.0
 11
45.0971566080014981
 21
24.9451700551688269
 31
0.0
  0
LINE
  5
4F
100
AcDbEntity
100
AcDbLine
  8
0
 62
256
370
40
  6
CONTINUOUS
 10
30.0312166400015528
 20
19.9229440000010314
 30
0.0
 11
14.6636800000002747
 21
34.9798400000006566
 31
0.0
  0
LINE
  5
50
100
AcDbEntity
100
AcDbLine
  8
0
 62
256
370
40
  6
CONTINUOUS
 10
39.9633285120020076
 20
19.8977781760009975
 30
0.0
 11
29.9008000000005616
 21
29.8188800000005614
 31
0.0
  0
SPLINE
  5
51
  8
0
 62
256
370
40
  6
CONTINUOUS
100
AcDbEntity
100
AcDbSpline
 70
8
 71
3
 72
21
 73
17
 74
0
 40
0.0
 40
0.0
 40
0.0
 40
0.0
 40
0.0714285714285714
 40
0.1428571428571428
 40
0.2142857142857143
 40
0.2857142857142857
 40
0.3571428571428572
 40
0.4285714285714285
 40
0.5
 40
0.5714285714285714
 40
0.6428571428571429
 40
0.7142857142857143
 40
0.7857142857142857
 40
0.8571428571428571
 40
0.9285714285714286
 40
1.0
 40
1.0
 40
1.0
 40
1.0
 10
40.2797666941157715
 20
10.2699694764986322
 30
0.0
 10
41.300050948925346
 20
9.3197291925200449
 30
0.0
 10
42.2837782722953506
 20
7.9914419321907317
 30
0.0
 10
43.643758623477261
 20
6.752414071589973
 30
0.0
 10
44.4543489930065761
 20
5.7991838733800076
 30
0.0
 10
45.761028893053215
 20
5.3563947939979748
 30
0.0
 10
46.929932805006203
 20
5.7505873071981544
 30
0.0
 10
47.9298856430424109
 20
6.2262654431253281
 30
0.0
 10
49.4217421316720191
 20
7.5059561372727899
 30
0.0
 10
49.9094599023415242
 20
8.6035401348854066
 30
0.0
 10
50.3522489817235197
 20
9.9102200349320562
 30
0.0
 10
50.134183336595413
 20
10.4943729994854262
 30
0.0
 10
48.940762127945149
 20
11.8196703455833738
 30
0.0
 10
47.7509288163725358
 20
12.8933350293450104
 30
0.0
 10
46.7725833386190146
 20
13.8441732961698776
 30
0.0
 10
45.3700662275347781
 20
15.124541950980408
 30
0.0
 10
44.6888800862512738
 20
15.8279334353928789
 30
0.0
  0
SPLINE
  5
52
  8
0
 62
256
370
40
  6
CONTINUOUS
100
AcDbEntity
100
AcDbSpline
 70
8
 71
3
 72
14
 73
10
 74
0
 40
0.0
 40
0.0
 40
0.0
 40
0.0
 40
0.1428571428571428
 40
0.2857142857142857
 40
0.4285714285714285
 40
0.5714285714285714
 40
0.7142857142857143
 40
0.8571428571428571
 40
1.0
 40
1.0
 40
1.0
 40
1.0
 10
30.127224345274108
 20
10.0077572940015003
 30
0.0
 10
31.7237934878434196
 20
7.2385094164038293
 30
0.0
 10
33.0901363765099603
 20
5.5532529679264222
 30
0.0
 10
34.8988856355357768
 20
5.2015172368126894
 30
0.0
 10
35.3608101659986289
 20
5.166156271065665
 30
0.0
 10
36.5264013611179905
 20
5.1807623490297665
 30
0.0
 10
37.5353263044341432
 20
5.8179816368579829
 30
0.0
 10
38.6666658490322561
 20
7.2086420462774647
 30
0.0
 10
39.9274329801557215
 20
8.5031589945273272
 30
0.0
 10
40.9732005578569272
 20
9.6254788506119855
 30
0.0
  0
SPLINE
  5
53
  8
0
 62
256
370
40
  6
CONTINUOUS
100
AcDbEntity
100
AcDbSpline
 70
8
 71
3
 72
14
 73
10
 74
0
 40
0.0
 40
0.0
 40
0.0
 40
0.0
 40
0.1428571428571428
 40
0.2857142857142857
 40
0.4285714285714285
 40
0.5714285714285714
 40
0.7142857142857143
 40
0.8571428571428571
 40
1.0
 40
1.0
 40
1.0
 40
1.0
 10
30.3176278530402001
 20
10.0078638688939403
 30
0.0
 10
28.7241597819413172
 20
7.2368304261198997
 30
0.0
 10
27.3597043319829822
 20
5.5500454630545697
 30
0.0
 10
25.5513499615212609
 20
5.1962851241235857
 30
0.0
 10
25.0894653057994148
 20
5.1604070730255245
 30
0.0
 10
23.9238584900718401
 20
5.1737083054005009
 30
0.0
 10
22.9142208354107844
 20
5.8097977396126446
 30
0.0
 10
21.7813252065715659
 20
7.1991907846705221
 30
0.0
 10
20.5191097013718888
 20
8.4922955393833739
 30
0.0
 10
19.4720863831819635
 20
9.6134439939153609
 30
0.0
  0
LINE
  5
54
100
AcDbEntity
100
AcDbLine
  8
0
 62
256
370
40
  6
CONTINUOUS
 10
23.0873001234694293
 20
5.697882948473671
 30
0.0
 11
10.3408889998523321
 21
19.0896148281502001
 31
0.0
  0
LINE
  5
55
100
AcDbEntity
100
AcDbLine
  8
0
 62
256
370
40
  6
CONTINUOUS
 10
38.497491183598072
 20
6.9998491415604445
 30
0.0
 11
50.1326293215085386
 21
19.4291264609626921
 31
0.0
  0
LINE
  5
56
100
AcDbEntity
100
AcDbLine
  8
0
 62
256
370
40
  6
CONTINUOUS
 10
19.9971006782890086
 20
19.9832887249901461
 30
0.0
 11
30.1196517778467729
 21
10.1622838599362666
 31
0.0
  0
LINE
  5
57
100
AcDbEntity
100
AcDbLine
  8
0
 62
256
370
40
  6
CONTINUOUS
 10
19.993173548179179
 20
19.9574603069237391
 30
0.0
 11
14.9162886650146174
 21
14.8916646958257886
 31
0.0
  0
LINE
  5
58
100
AcDbEntity
100
AcDbLine
  8
0
 62
256
370
40
  6
CONTINUOUS
 10
30.0850146917305565
 20
20.1228315529039641
 30
0.0
 11
40.3241916899708315
 21
10.2562401523473383
 31
0.0
  0
LINE
  5
59
100
AcDbEntity
100
AcDbLine
  8
0
 62
256
370
40
  6
CONTINUOUS
 10
39.9941851939252899
 20
20.2963367044637764
 30
0.0
 11
45.1656142295087761
 21
15.3423031516543702
 31
0.0
  0
LINE
  5
5A
100
AcDbEntity
100
AcDbLine
  8
0
 62
256
370
40
  6
CONTINUOUS
 10
39.9603471405141448
 20
20.315988931173667
 30
0.0
 11
30.0402867162319502
 21
10.2524337623677813
 31
0.0
  0
LINE
  5
5B
100
AcDbEntity
100
AcDbLine
  8
0
 62
256
370
40
  6
CONTINUOUS
 10
50.0170752000030063
 20
35.0748672000021102
 30
0.0
 11
10.1120000000006094
 21
35.0748672000021102
 31
0.0
  0
LINE
  5
5C
100
AcDbEntity
100
AcDbLine
  8
0
 62
256
370
40
  6
CONTINUOUS
 10
50.379966382083083
 20
5.3687091200003287
 30
0.0
 11
50.2940670361630779
 21
35.1757821542421496
 31
0.0
  0
SPLINE
  5
5D
  8
0
 62
256
370
40
  6
CONTINUOUS
100
AcDbEntity
100
AcDbSpline
 70
8
 71
3
 72
21
 73
17
 74
0
 40
0.0
 40
0.0
 40
0.0
 40
0.0
 40
0.0714285714285714
 40
0.1428571428571428
 40
0.2142857142857143
 40
0.2857142857142857
 40
0.3571428571428572
 40
0.4285714285714285
 40
0.5
 40
0.5714285714285714
 40
0.6428571428571429
 40
0.7142857142857143
 40
0.7857142857142857
 40
0.8571428571428571
 40
0.9285714285714286
 40
1.0
 40
1.0
 40
1.0
 40
1.0
 10
20.1647983288863699
 20
10.2587104896469281
 30
0.0
 10
19.1455784724051483
 20
9.3073286304246174
 30
0.0
 10
18.1633387341308676
 20
7.9779409558718815
 30
0.0
 10
16.8047462811921626
 20
6.737391423703265
 30
0.0
 10
15.9952235256960851
 20
5.7832543967060364
 30
0.0
 10
15.1570285628134407
 20
4.8623509934755766
 30
0.0
 10
13.5196956669620683
 20
5.7318865360246321
 30
0.0
 10
12.519210951332191
 20
6.2064449634988694
 30
0.0
 10
11.0259228308724637
 20
7.4844647773702224
 30
0.0
 10
10.5369766609237381
 20
8.5815021051465621
 30
0.0
 10
10.092725078944401
 20
9.8876855003535713
 30
0.0
 10
10.3101366496919056
 20
10.4720822153394817
 30
0.0
 10
11.5020734889513712
 20
11.7987147221203834
 30
0.0
 10
12.6907041268841283
 20
12.8737107077186508
 30
0.0
 10
13.6679845631683499
 20
13.8256436004980614
 30
0.0
 10
15.0690674698585436
 20
15.1075815193092673
 30
0.0
 10
15.7494657634367918
 20
15.8117351257876315
 30
0.0
  0
LINE
  5
5E
100
AcDbEntity
100
AcDbLine
  8
0
 62
256
370
40
  6
CONTINUOUS
 10
30.0296035233485483
 20
20.1492233269420247
 30
0.0
 11
15.2557238353929545
 21
5.0337016709123148
 31
0.0
  0
LINE
  5
5F
100
AcDbEntity
100
AcDbLine
  8
0
 62
256
370
40
  6
CONTINUOUS
 10
10.1120000000006094
 20
35.0748672000021102
 30
0.0
 11
10.0502234726406297
 21
5.0337016709123148
 31
0.0
  0
LINE
  5
60
100
AcDbEntity
100
AcDbLine
  8
0
 62
256
370
40
  6
CONTINUOUS
 10
10.101763080192633
 20
5.0852412784643182
 30
0.0
 11
50.4229160550431601
 21
5.3429393162243342
 31
0.0
  0
LINE
  5
61
100
AcDbEntity
100
AcDbLine
  8
0
 62
256
370
40
  6
CONTINUOUS
 10
30.0312166400019507
 20
37.2873625600024212
 30
0.0
 11
30.0312166400019507
 21
2.8101836800001827
 31
0.0
  0
LINE
  5
62
100
AcDbEntity
100
AcDbLine
  8
0
 62
256
370
40
  6
CONTINUOUS
 10
9.3952409600006099
 20
20.0068300800013006
 30
0.0
 11
53.1837747200034556
 21
20.0068300800013006
 31
0.0
  0
ENDSEC
  0
SECTION
  2
OBJECTS
  0
DICTIONARY
  5
C
100
AcDbDictionary
280
0
281
1
  3
ACAD_GROUP
350
D
  3
ACAD_LAYOUT
350
1A
  3
ACAD_MLINESTYLE
350
17
  3
ACAD_PLOTSETTINGS
350
19
  3
ACAD_PLOTSTYLENAME
350
E
  3
AcDbVariableDictionary
350
63
  0
DICTIONARY
  5
D
100
AcDbDictionary
280
0
281
1
  0
ACDBDICTIONARYWDFLT
  5
E
100
AcDbDictionary
281
1
  3
Normal
350
F
100
AcDbDictionaryWithDefault
340
F
  0
ACDBPLACEHOLDER
  5
F
  0
DICTIONARY
  5
17
100
AcDbDictionary
280
0
281
1
  3
Standard
350
18
  0
MLINESTYLE
  5
18
100
AcDbMlineStyle
  2
STANDARD
 70
0
  3

 62
256
 51
90.0
 52
90.0
 71
2
 49
0.5
 62
256
  6
BYLAYER
 49
-0.5
 62
256
  6
BYLAYER
  0
DICTIONARY
  5
19
100
AcDbDictionary
280
0
281
1
  0
DICTIONARY
  5
1A
100
AcDbDictionary
281
1
  3
Layout1
350
1E
  3
Layout2
350
26
  3
Model
350
22
  0
LAYOUT
  5
1E
100
AcDbPlotSettings
  1

  2
C:\Program Files\AutoCAD 2002\plotters\DWF ePlot (optimized for plotting).pc3
  4

  6

 40
0.0
 41
0.0
 42
0.0
 43
0.0
 44
0.0
 45
0.0
 46
0.0
 47
0.0
 48
0.0
 49
0.0
140
0.0
141
0.0
142
1.0
143
1.0
 70
688
 72
0
 73
0
 74
5
  7

 75
16
147
1.0
148
0.0
149
0.0
100
AcDbLayout
  1
Layout1
 70
1
 71
1
 10
0.0
 20
0.0
 11
420.0
 21
297.0
 12
0.0
 22
0.0
 32
0.0
 14
100000000000000000000.0
 24
100000000000000000000.0
 34
100000000000000000000.0
 15
-100000000000000000000.0
 25
-100000000000000000000.0
 35
-100000000000000000000.0
146
0.0
 13
0.0
 23
0.0
 33
0.0
 16
1.0
 26
0.0
 36
0.0
 17
0.0
 27
1.0
 37
0.0
 76
0
330
1B
  0
LAYOUT
  5
22
100
AcDbPlotSettings
  1

  2
C:\Program Files\AutoCAD 2002\plotters\DWF ePlot (optimized for plotting).pc3
  4

  6

 40
0.0
 41
0.0
 42
0.0
 43
0.0
 44
0.0
 45
0.0
 46
0.0
 47
0.0
 48
0.0
 49
0.0
140
0.0
141
0.0
142
1.0
143
1.0
 70
1712
 72
0
 73
0
 74
0
  7

 75
0
147
1.0
148
0.0
149
0.0
100
AcDbLayout
  1
Model
 70
1
 71
0
 10
0.0
 20
0.0
 11
12.0
 21
9.0
 12
0.0
 22
0.0
 32
0.0
 14
0.0
 24
0.0
 34
0.0
 15
0.0
 25
0.0
 35
0.0
146
0.0
 13
0.0
 23
0.0
 33
0.0
 16
1.0
 26
0.0
 36
0.0
 17
0.0
 27
1.0
 37
0.0
 76
0
330
1F
  0
LAYOUT
  5
26
100
AcDbPlotSettings
  1

  2
C:\Program Files\AutoCAD 2002\plotters\DWF ePlot (optimized for plotting).pc3
  4

  6

 40
0.0
 41
0.0
 42
0.0
 43
0.0
 44
0.0
 45
0.0
 46
0.0
 47
0.0
 48
0.0
 49
0.0
140
0.0
141
0.0
142
1.0
143
1.0
 70
688
 72
0
 73
0
 74
5
  7

 75
16
147
1.0
148
0.0
149
0.0
100
AcDbLayout
  1
Layout2
 70
1
 71
2
 10
0.0
 20
0.0
 11
12.0
 21
9.0
 12
0.0
 22
0.0
 32
0.0
 14
0.0
 24
0.0
 34
0.0
 15
0.0
 25
0.0
 35
0.0
146
0.0
 13
0.0
 23
0.0
 33
0.0
 16
1.0
 26
0.0
 36
0.0
 17
0.0
 27
1.0
 37
0.0
 76
0
330
23
  0
DICTIONARY
  5
63
100
AcDbDictionary
281
1
  3
DIMASSOC
350
65
  3
HIDETEXT
350
64
  0
DICTIONARYVAR
  5
64
100
DictionaryVariables
280
0
  1
2
  0
DICTIONARYVAR
  5
65
100
DictionaryVariables
280
0
  1
1
  0
ENDSEC
  0
EOF
