999
dxflib 2.0.4.8
  0
SECTION
  2
HEADER
  9
$ACADVER
  1
AC1015
  9
$HANDSEED
  5
FFFF
  9
$DIMASZ
 40
2.5
  9
$DIMGAP
 40
0.625
  9
$DIMEXO
 40
0.625
  9
$INSUNITS
 70
4
  9
$DIMTXT
 40
2.5
  9
$PLIMMAX
 10
210.0
 20
297.0
  9
$PLIMMIN
 10
0.0
 20
0.0
  9
$DIMEXE
 40
1.25
  0
ENDSEC
  0
SECTION
  2
TABLES
  0
TABLE
  2
VPORT
  5
8
100
AcDbSymbolTable
 70
1
  0
VPORT
  5
30
100
AcDbSymbolTableRecord
100
AcDbViewportTableRecord
  2
*Active
 70
0
 10
0.0
 20
0.0
 11
1.0
 21
1.0
 12
286.3055555555554861
 22
148.5
 13
0.0
 23
0.0
 14
10.0
 24
10.0
 15
10.0
 25
10.0
 16
0.0
 26
0.0
 36
1.0
 17
0.0
 27
0.0
 37
0.0
 40
297.0
 41
1.92798353909465
 42
50.0
 43
0.0
 44
0.0
 50
0.0
 51
0.0
 71
0
 72
100
 73
1
 74
3
 75
1
 76
1
 77
0
 78
0
281
0
 65
1
110
0.0
120
0.0
130
0.0
111
1.0
121
0.0
131
0.0
112
0.0
122
1.0
132
0.0
 79
0
146
0.0
  0
ENDTAB
  0
TABLE
  2
LTYPE
  5
5
100
AcDbSymbolTable
 70
21
  0
LTYPE
  5
14
100
AcDbSymbolTableRecord
100
AcDbLinetypeTableRecord
  2
ByBlock
 70
0
  3

 72
65
 73
0
 40
0.0
  0
LTYPE
  5
15
100
AcDbSymbolTableRecord
100
AcDbLinetypeTableRecord
  2
ByLayer
 70
0
  3

 72
65
 73
0
 40
0.0
  0
LTYPE
  5
16
100
AcDbSymbolTableRecord
100
AcDbLinetypeTableRecord
  2
CONTINUOUS
 70
0
  3
Solid line
 72
65
 73
0
 40
0.0
  0
LTYPE
  5
31
100
AcDbSymbolTableRecord
100
AcDbLinetypeTableRecord
  2
DOT
 70
0
  3
Dot . . . . . . . . . . . . . . . . . . . . . .
 72
65
 73
2
 40
6.3499999999999996
 49
0.0
 74
0
 49
-6.3499999999999996
 74
0
  0
LTYPE
  5
32
100
AcDbSymbolTableRecord
100
AcDbLinetypeTableRecord
  2
DOT2
 70
0
  3
Dot (.5x) .....................................
 72
65
 73
2
 40
3.1749999999999998
 49
0.0
 74
0
 49
-3.1749999999999998
 74
0
  0
LTYPE
  5
33
100
AcDbSymbolTableRecord
100
AcDbLinetypeTableRecord
  2
DOTX2
 70
0
  3
Dot (2x) .  .  .  .  .  .  .  .  .  .  .  .  .
 72
65
 73
2
 40
12.6999999999999993
 49
0.0
 74
0
 49
-12.6999999999999993
 74
0
  0
LTYPE
  5
34
100
AcDbSymbolTableRecord
100
AcDbLinetypeTableRecord
  2
DASHED
 70
0
  3
Dashed __ __ __ __ __ __ __ __ __ __ __ __ __ _
 72
65
 73
2
 40
19.0500000000000007
 49
12.6999999999999993
 74
0
 49
-6.3499999999999996
 74
0
  0
LTYPE
  5
35
100
AcDbSymbolTableRecord
100
AcDbLinetypeTableRecord
  2
DASHED2
 70
0
  3
Dashed (.5x) _ _ _ _ _ _ _ _ _ _ _ _ _ _ _ _ _
 72
65
 73
2
 40
9.5250000000000004
 49
6.3499999999999996
 74
0
 49
-3.1749999999999998
 74
0
  0
LTYPE
  5
36
100
AcDbSymbolTableRecord
100
AcDbLinetypeTableRecord
  2
DASHEDX2
 70
0
  3
Dashed (2x) ____  ____  ____  ____  ____  ___
 72
65
 73
2
 40
38.1000000000000014
 49
25.3999999999999986
 74
0
 49
-12.6999999999999993
 74
0
  0
LTYPE
  5
37
100
AcDbSymbolTableRecord
100
AcDbLinetypeTableRecord
  2
DASHDOT
 70
0
  3
Dash dot __ . __ . __ . __ . __ . __ . __ . __
 72
65
 73
4
 40
25.3999999999999986
 49
12.6999999999999993
 74
0
 49
-6.3499999999999996
 74
0
 49
0.0
 74
0
 49
-6.3499999999999996
 74
0
  0
LTYPE
  5
38
100
AcDbSymbolTableRecord
100
AcDbLinetypeTableRecord
  2
DASHDOT2
 70
0
  3
Dash dot (.5x) _._._._._._._._._._._._._._._.
 72
65
 73
4
 40
12.6999999999999993
 49
6.3499999999999996
 74
0
 49
-3.1749999999999998
 74
0
 49
0.0
 74
0
 49
-3.1749999999999998
 74
0
  0
LTYPE
  5
39
100
AcDbSymbolTableRecord
100
AcDbLinetypeTableRecord
  2
DASHDOTX2
 70
0
  3
Dash dot (2x) ____  .  ____  .  ____  .  ___
 72
65
 73
4
 40
50.7999999999999972
 49
25.3999999999999986
 74
0
 49
-12.6999999999999993
 74
0
 49
0.0
 74
0
 49
-12.6999999999999993
 74
0
  0
LTYPE
  5
3A
100
AcDbSymbolTableRecord
100
AcDbLinetypeTableRecord
  2
DIVIDE
 70
0
  3
Divide ____ . . ____ . . ____ . . ____ . . ____
 72
65
 73
6
 40
31.75
 49
12.6999999999999993
 74
0
 49
-6.3499999999999996
 74
0
 49
0.0
 74
0
 49
-6.3499999999999996
 74
0
 49
0.0
 74
0
 49
-6.3499999999999996
 74
0
  0
LTYPE
  5
3B
100
AcDbSymbolTableRecord
100
AcDbLinetypeTableRecord
  2
DIVIDE2
 70
0
  3
Divide (.5x) __..__..__..__..__..__..__..__.._
 72
65
 73
6
 40
15.875
 49
6.3499999999999996
 74
0
 49
-3.1749999999999998
 74
0
 49
0.0
 74
0
 49
-3.1749999999999998
 74
0
 49
0.0
 74
0
 49
-3.1749999999999998
 74
0
  0
LTYPE
  5
3C
100
AcDbSymbolTableRecord
100
AcDbLinetypeTableRecord
  2
DIVIDEX2
 70
0
  3
Divide (2x) ________  .  .  ________  .  .  _
 72
65
 73
6
 40
63.5
 49
25.3999999999999986
 74
0
 49
-12.6999999999999993
 74
0
 49
0.0
 74
0
 49
-12.6999999999999993
 74
0
 49
0.0
 74
0
 49
-12.6999999999999993
 74
0
  0
LTYPE
  5
3D
100
AcDbSymbolTableRecord
100
AcDbLinetypeTableRecord
  2
CENTER
 70
0
  3
Center ____ _ ____ _ ____ _ ____ _ ____ _ ____
 72
65
 73
4
 40
50.7999999999999972
 49
31.75
 74
0
 49
-6.3499999999999996
 74
0
 49
6.3499999999999996
 74
0
 49
-6.3499999999999996
 74
0
  0
LTYPE
  5
3E
100
AcDbSymbolTableRecord
100
AcDbLinetypeTableRecord
  2
CENTER2
 70
0
  3
Center (.5x) ___ _ ___ _ ___ _ ___ _ ___ _ ___
 72
65
 73
4
 40
28.5749999999999993
 49
19.0500000000000007
 74
0
 49
-3.1749999999999998
 74
0
 49
3.1749999999999998
 74
0
 49
-3.1749999999999998
 74
0
  0
LTYPE
  5
3F
100
AcDbSymbolTableRecord
100
AcDbLinetypeTableRecord
  2
CENTERX2
 70
0
  3
Center (2x) ________  __  ________  __  _____
 72
65
 73
4
 40
101.5999999999999943
 49
63.5
 74
0
 49
-12.6999999999999993
 74
0
 49
12.6999999999999993
 74
0
 49
-12.6999999999999993
 74
0
  0
LTYPE
  5
40
100
AcDbSymbolTableRecord
100
AcDbLinetypeTableRecord
  2
BORDER
 70
0
  3
Border __ __ . __ __ . __ __ . __ __ . __ __ .
 72
65
 73
6
 40
44.4500000000000028
 49
12.6999999999999993
 74
0
 49
-6.3499999999999996
 74
0
 49
12.6999999999999993
 74
0
 49
-6.3499999999999996
 74
0
 49
0.0
 74
0
 49
-6.3499999999999996
 74
0
  0
LTYPE
  5
41
100
AcDbSymbolTableRecord
100
AcDbLinetypeTableRecord
  2
BORDER2
 70
0
  3
Border (.5x) __.__.__.__.__.__.__.__.__.__.__.
 72
65
 73
6
 40
22.2250000000000014
 49
6.3499999999999996
 74
0
 49
-3.1749999999999998
 74
0
 49
6.3499999999999996
 74
0
 49
-3.1749999999999998
 74
0
 49
0.0
 74
0
 49
-3.1749999999999998
 74
0
  0
LTYPE
  5
42
100
AcDbSymbolTableRecord
100
AcDbLinetypeTableRecord
  2
BORDERX2
 70
0
  3
Border (2x) ____  ____  .  ____  ____  .  ___
 72
65
 73
6
 40
88.9000000000000057
 49
25.3999999999999986
 74
0
 49
-12.6999999999999993
 74
0
 49
25.3999999999999986
 74
0
 49
-12.6999999999999993
 74
0
 49
0.0
 74
0
 49
-12.6999999999999993
 74
0
  0
ENDTAB
  0
TABLE
  2
LAYER
  5
2
100
AcDbSymbolTable
 70
1
  0
LAYER
  5
10
100
AcDbSymbolTableRecord
100
AcDbLayerTableRecord
  2
0
 70
0
 62
7
  6
CONTINUOUS
370
0
390
F
  0
ENDTAB
  0
TABLE
  2
STYLE
  5
3
100
AcDbSymbolTable
 70
1
  0
STYLE
  5
11
100
AcDbSymbolTableRecord
100
AcDbTextStyleTableRecord
  2
Standard
 70
0
 40
0.0
 41
0.75
 50
0.0
 71
0
 42
2.5
  3
txt
  4

  0
ENDTAB
  0
TABLE
  2
VIEW
  5
6
100
AcDbSymbolTable
 70
0
  0
ENDTAB
  0
TABLE
  2
UCS
  5
7
100
AcDbSymbolTable
 70
0
  0
ENDTAB
  0
TABLE
  2
APPID
  5
9
100
AcDbSymbolTable
 70
1
  0
APPID
  5
12
100
AcDbSymbolTableRecord
100
AcDbRegAppTableRecord
  2
ACAD
 70
0
  0
ENDTAB
  0
TABLE
  2
DIMSTYLE
  5
A
100
AcDbSymbolTable
 70
1
100
AcDbDimStyleTable
 71
0
  0
DIMSTYLE
105
27
100
AcDbSymbolTableRecord
100
AcDbDimStyleTableRecord
  2
Standard
 41
2.5
 42
0.625
 43
3.75
 44
1.25
 70
0
 73
0
 74
0
 77
1
 78
8
140
2.5
141
2.5
143
0.03937007874016
147
0.625
171
3
172
1
271
2
272
2
274
3
278
44
283
0
284
8
340
11
  0
ENDTAB
  0
TABLE
  2
BLOCK_RECORD
  5
1
100
AcDbSymbolTable
 70
1
  0
BLOCK_RECORD
  5
1F
100
AcDbSymbolTableRecord
100
AcDbBlockTableRecord
  2
*Model_Space
340
22
  0
BLOCK_RECORD
  5
1B
100
AcDbSymbolTableRecord
100
AcDbBlockTableRecord
  2
*Paper_Space
340
1E
  0
BLOCK_RECORD
  5
23
100
AcDbSymbolTableRecord
100
AcDbBlockTableRecord
  2
*Paper_Space0
340
26
  0
ENDTAB
  0
ENDSEC
  0
SECTION
  2
BLOCKS
  0
BLOCK
  5
20
100
AcDbEntity
  8
0
100
AcDbBlockBegin
  2
*Model_Space
 70
0
 10
0.0
 20
0.0
 30
0.0
  3
*Model_Space
  1

  0
ENDBLK
  5
21
100
AcDbEntity
  8
0
100
AcDbBlockEnd
  0
BLOCK
  5
1C
100
AcDbEntity
 67
1
  8
0
100
AcDbBlockBegin
  2
*Paper_Space
 70
0
 10
0.0
 20
0.0
 30
0.0
  3
*Paper_Space
  1

  0
ENDBLK
  5
1D
100
AcDbEntity
 67
1
  8
0
100
AcDbBlockEnd
  0
BLOCK
  5
24
100
AcDbEntity
  8
0
100
AcDbBlockBegin
  2
*Paper_Space0
 70
0
 10
0.0
 20
0.0
 30
0.0
  3
*Paper_Space0
  1

  0
ENDBLK
  5
25
100
AcDbEntity
  8
0
100
AcDbBlockEnd
  0
ENDSEC
  0
SECTION
  2
ENTITIES
  0
LINE
  5
43
100
AcDbEntity
100
AcDbLine
  8
0
 62
256
370
40
  6
CONTINUOUS
 10
0.0
 20
100.25
 30
0.0
 11
132.5
 21
100.25
 31
0.0
  0
LINE
  5
44
100
AcDbEntity
100
AcDbLine
  8
0
 62
256
370
40
  6
CONTINUOUS
 10
132.5
 20
100.25
 30
0.0
 11
132.5
 21
73.25
 31
0.0
  0
LINE
  5
45
100
AcDbEntity
100
AcDbLine
  8
0
 62
256
370
40
  6
CONTINUOUS
 10
132.5
 20
73.25
 30
0.0
 11
0.0
 21
73.25
 31
0.0
  0
LINE
  5
46
100
AcDbEntity
100
AcDbLine
  8
0
 62
256
370
40
  6
CONTINUOUS
 10
0.0
 20
73.25
 30
0.0
 11
0.0
 21
100.25
 31
0.0
  0
LINE
  5
47
100
AcDbEntity
100
AcDbLine
  8
0
 62
256
370
40
  6
CONTINUOUS
 10
132.382720000000063
 20
86.7532800000000321
 30
0.0
 11
125.6534248273345327
 21
61.6392085164842598
 31
0.0
  0
LINE
  5
48
100
AcDbEntity
100
AcDbLine
  8
0
 62
256
370
40
  6
CONTINUOUS
 10
132.2778624000004868
 20
86.7172352000003173
 30
0.0
 11
16.3667632453122991
 21
117.7755206123028415
 31
0.0
  0
LINE
  5
49
100
AcDbEntity
100
AcDbLine
  8
0
 62
256
370
40
  6
CONTINUOUS
 10
125.5669760000004658
 20
61.6562688000002268
 30
0.0
 11
9.6558768453122781
 21
92.714554212302744
 31
0.0
  0
LINE
  5
4A
100
AcDbEntity
100
AcDbLine
  8
0
 62
256
370
40
  6
CONTINUOUS
 10
16.4864000000000885
 20
117.7600000000006162
 30
0.0
 11
9.5232000000000507
 21
92.6720000000004944
 31
0.0
  0
LEADER
  5
4B
  8
0
 62
256
370
40
  6
CONTINUOUS
100
AcDbEntity
100
AcDbLeader
  3
Standard
 71
1
 72
0
 73
3
 74
0
 75
0
 40
1.0
 41
10.0
 76
2
 10
148.0704000000007738
 20
86.6304000000004635
 10
132.3008000000006916
 20
86.6304000000004635
  0
LEADER
  5
4C
  8
0
 62
256
370
40
  6
CONTINUOUS
100
AcDbEntity
100
AcDbLeader
  3
Standard
 71
1
 72
0
 73
3
 74
0
 75
0
 40
1.0
 41
10.0
 76
2
 10
15.2000000000000774
 20
86.8000000000004519
 10
-0.200000000000001
 20
86.8000000000004519
  0
SPLINE
  5
4D
  8
0
 62
256
370
40
  6
CONTINUOUS
100
AcDbEntity
100
AcDbSpline
 70
8
 71
3
 72
27
 73
23
 74
0
 40
0.0
 40
0.0
 40
0.0
 40
0.0
 40
0.05
 40
0.1
 40
0.15
 40
0.2
 40
0.25
 40
0.3
 40
0.35
 40
0.4
 40
0.45
 40
0.5
 40
0.55
 40
0.6
 40
0.65
 40
0.7
 40
0.75
 40
0.8
 40
0.85
 40
0.9
 40
0.95
 40
1.0
 40
1.0
 40
1.0
 40
1.0
 10
49.0733568000003118
 20
119.1601766400007705
 30
0.0
 10
48.4861542400003103
 20
121.2153856000007721
 30
0.0
 10
50.384076800000301
 20
122.1066752000007227
 30
0.0
 10
51.6423680000003102
 20
122.4736768000007316
 30
0.0
 10
53.7709772800003449
 20
123.0608793600007829
 30
0.0
 10
56.3295027200003631
 20
123.2286515200007955
 30
0.0
 10
58.8041420800003749
 20
123.3125376000007947
 30
0.0
 10
61.2787814400003938
 20
123.2286515200007955
 30
0.0
 10
64.3406233600004072
 20
122.4736768000007885
 30
0.0
 10
67.1088640000003949
 20
121.2153856000007295
 30
0.0
 10
69.5730176000004121
 20
120.1143808000007169
 30
0.0
 10
70.7788800000004272
 20
119.1182336000007069
 30
0.0
 10
72.0581427200004612
 20
118.447144960000756
 30
0.0
 10
68.9963008000004407
 20
118.9924044800007579
 30
0.0
 10
66.9830348800004316
 20
119.9151513600007632
 30
0.0
 10
64.4245094400004064
 20
120.166809600000775
 30
0.0
 10
60.8174080000003912
 20
119.8732083200007708
 30
0.0
 10
58.8460851200003745
 20
119.6634931200007657
 30
0.0
 10
56.8328192000003654
 20
119.4957209600007673
 30
0.0
 10
53.6870912000003173
 20
118.2269440000006995
 30
0.0
 10
51.3277952000003026
 20
117.9648000000007073
 30
0.0
 10
49.387929600000291
 20
118.2269440000006995
 30
0.0
 10
48.8636416000003138
 20
119.2440627200007697
 30
0.0
  0
SPLINE
  5
4E
  8
0
 62
256
370
40
  6
CONTINUOUS
100
AcDbEntity
100
AcDbSpline
 70
8
 71
3
 72
27
 73
23
 74
0
 40
0.0
 40
0.0
 40
0.0
 40
0.0
 40
0.05
 40
0.1
 40
0.15
 40
0.2
 40
0.25
 40
0.3
 40
0.35
 40
0.4
 40
0.45
 40
0.5
 40
0.55
 40
0.6
 40
0.65
 40
0.7
 40
0.75
 40
0.8
 40
0.85
 40
0.9
 40
0.95
 40
1.0
 40
1.0
 40
1.0
 40
1.0
 10
49.2013568000003119
 20
87.8001766400005295
 30
0.0
 10
48.6141542400003104
 20
89.8553856000005311
 30
0.0
 10
50.5120768000003011
 20
90.7466752000004817
 30
0.0
 10
51.7703680000003104
 20
91.1136768000004906
 30
0.0
 10
53.898977280000345
 20
91.7008793600005419
 30
0.0
 10
56.4575027200003632
 20
91.8686515200005545
 30
0.0
 10
58.932142080000375
 20
91.9525376000005537
 30
0.0
 10
61.406781440000394
 20
91.8686515200005545
 30
0.0
 10
64.4686233600004073
 20
91.1136768000005475
 30
0.0
 10
67.236864000000395
 20
89.8553856000004885
 30
0.0
 10
69.7010176000004122
 20
88.7543808000004759
 30
0.0
 10
70.9068800000004273
 20
87.7582336000004659
 30
0.0
 10
72.1861427200004613
 20
87.087144960000515
 30
0.0
 10
69.1243008000004409
 20
87.6324044800005169
 30
0.0
 10
67.1110348800004317
 20
88.5551513600005222
 30
0.0
 10
64.5525094400004065
 20
88.806809600000534
 30
0.0
 10
60.9454080000003913
 20
88.5132083200005297
 30
0.0
 10
58.9740851200003746
 20
88.3034931200005246
 30
0.0
 10
56.9608192000003655
 20
88.1357209600005262
 30
0.0
 10
53.8150912000003174
 20
86.8669440000004585
 30
0.0
 10
51.4557952000003027
 20
86.6048000000004663
 30
0.0
 10
49.5159296000002911
 20
86.8669440000004585
 30
0.0
 10
48.9916416000003139
 20
87.8840627200005287
 30
0.0
  0
SPLINE
  5
4F
  8
0
 62
256
370
40
  6
CONTINUOUS
100
AcDbEntity
100
AcDbSpline
 70
8
 71
3
 72
27
 73
23
 74
0
 40
0.0
 40
0.0
 40
0.0
 40
0.0
 40
0.05
 40
0.1
 40
0.15
 40
0.2
 40
0.25
 40
0.3
 40
0.35
 40
0.4
 40
0.45
 40
0.5
 40
0.55
 40
0.6
 40
0.65
 40
0.7
 40
0.75
 40
0.8
 40
0.85
 40
0.9
 40
0.95
 40
1.0
 40
1.0
 40
1.0
 40
1.0
 10
49.0733568000003118
 20
61.1761766400003282
 30
0.0
 10
48.4861542400003103
 20
63.2313856000003298
 30
0.0
 10
50.384076800000301
 20
64.1226752000002875
 30
0.0
 10
51.6423680000003102
 20
64.4896768000002965
 30
0.0
 10
53.7709772800003449
 20
65.0768793600003335
 30
0.0
 10
56.3295027200003631
 20
65.2446515200003603
 30
0.0
 10
58.8041420800003749
 20
65.3285376000003453
 30
0.0
 10
61.2787814400003938
 20
65.2446515200003603
 30
0.0
 10
64.3406233600004072
 20
64.4896768000003533
 30
0.0
 10
67.1088640000003949
 20
63.2313856000002872
 30
0.0
 10
69.5730176000004121
 20
62.1303808000002746
 30
0.0
 10
70.7788800000004272
 20
61.1342336000002646
 30
0.0
 10
72.0581427200004612
 20
60.4631449600003137
 30
0.0
 10
68.9963008000004407
 20
61.0084044800003156
 30
0.0
 10
66.9830348800004316
 20
61.9311513600003209
 30
0.0
 10
64.4245094400004064
 20
62.1828096000003328
 30
0.0
 10
60.8174080000003912
 20
61.8892083200003285
 30
0.0
 10
58.8460851200003745
 20
61.6794931200003234
 30
0.0
 10
56.8328192000003654
 20
61.511720960000325
 30
0.0
 10
53.6870912000003173
 20
60.2429440000002572
 30
0.0
 10
51.3277952000003026
 20
59.980800000000265
 30
0.0
 10
49.387929600000291
 20
60.2429440000002572
 30
0.0
 10
48.8636416000003138
 20
61.2600627200003274
 30
0.0
  0
MTEXT
  5
50
100
AcDbEntity
100
AcDbMText
  8
0
 62
256
370
40
  6
CONTINUOUS
 10
-5.0781250000000409
 20
71.4843750000005684
 30
0.0
 40
8.0
 41
100.0
 71
5
 72
0
  1
A
  7
normal
 50
0.0
 73
1
 44
1.0
  0
MTEXT
  5
51
100
AcDbEntity
100
AcDbMText
  8
0
 62
256
370
40
  6
CONTINUOUS
 10
-7.031250000000056
 20
105.4687500000008384
 30
0.0
 40
8.0
 41
100.0
 71
5
 72
0
  1
B
  7
normal
 50
0.0
 73
1
 44
1.0
  0
MTEXT
  5
52
100
AcDbEntity
100
AcDbMText
  8
0
 62
256
370
40
  6
CONTINUOUS
 10
129.6875000000010232
 20
107.8125000000008527
 30
0.0
 40
8.0
 41
100.0
 71
5
 72
0
  1
C
  7
normal
 50
0.0
 73
1
 44
1.0
  0
MTEXT
  5
53
100
AcDbEntity
100
AcDbMText
  8
0
 62
256
370
40
  6
CONTINUOUS
 10
138.2812500000011084
 20
74.2187500000005969
 30
0.0
 40
8.0
 41
100.0
 71
5
 72
0
  1
D
  7
normal
 50
0.0
 73
1
 44
1.0
  0
MTEXT
  5
54
100
AcDbEntity
100
AcDbMText
  8
0
 62
256
370
40
  6
CONTINUOUS
 10
15.2343750000001208
 20
124.2187500000009948
 30
0.0
 40
8.0
 41
100.0
 71
5
 72
0
  1
B'
  7
normal
 50
0.0
 73
1
 44
1.0
  0
MTEXT
  5
55
100
AcDbEntity
100
AcDbMText
  8
0
 62
256
370
40
  6
CONTINUOUS
 10
124.2187500000009948
 20
84.3750000000006679
 30
0.0
 40
8.0
 41
100.0
 71
5
 72
0
  1
C'
  7
normal
 50
0.0
 73
1
 44
1.0
  0
MTEXT
  5
56
100
AcDbEntity
100
AcDbMText
  8
0
 62
256
370
40
  6
CONTINUOUS
 10
123.0468750000009805
 20
53.9062500000004263
 30
0.0
 40
8.0
 41
100.0
 71
5
 72
0
  1
D'
  7
normal
 50
0.0
 73
1
 44
1.0
  0
MTEXT
  5
57
100
AcDbEntity
100
AcDbMText
  8
0
 62
256
370
40
  6
CONTINUOUS
 10
5.4687500000000435
 20
95.3125000000007532
 30
0.0
 40
8.0
 41
100.0
 71
5
 72
0
  1
A'
  7
normal
 50
0.0
 73
1
 44
1.0
  0
MTEXT
  5
58
100
AcDbEntity
100
AcDbMText
  8
0
 62
256
370
40
  6
CONTINUOUS
 10
148.0468750000011653
 20
91.0156250000007248
 30
0.0
 40
8.0
 41
100.0
 71
5
 72
0
  1
V
  7
normal
 50
0.0
 73
1
 44
1.0
  0
MTEXT
  5
59
100
AcDbEntity
100
AcDbMText
  8
0
 62
256
370
40
  6
CONTINUOUS
 10
10.5468750000000835
 20
79.6875000000006395
 30
0.0
 40
8.0
 41
100.0
 71
5
 72
0
  1
V
  7
normal
 50
0.0
 73
1
 44
1.0
  0
LINE
  5
5A
100
AcDbEntity
100
AcDbLine
  8
0
 62
256
370
40
  6
CONTINUOUS
 10
7.9360000000000674
 20
85.2480000000007294
 30
0.0
 11
13.184000000000113
 21
85.2480000000007294
 31
0.0
  0
LINE
  5
5B
100
AcDbEntity
100
AcDbLine
  8
0
 62
256
370
40
  6
CONTINUOUS
 10
144.6400000000012369
 20
97.4080000000008255
 30
0.0
 11
150.7840000000012992
 21
97.4080000000008255
 31
0.0
  0
SPLINE
  5
5C
  8
0
 62
256
370
40
  6
CONTINUOUS
100
AcDbEntity
100
AcDbSpline
 70
8
 71
3
 72
16
 73
12
 74
0
 40
0.0
 40
0.0
 40
0.0
 40
0.0
 40
0.1111111111111111
 40
0.2222222222222222
 40
0.3333333333333333
 40
0.4444444444444444
 40
0.5555555555555556
 40
0.6666666666666666
 40
0.7777777777777778
 40
0.8888888888888888
 40
1.0
 40
1.0
 40
1.0
 40
1.0
 10
152.6431376998417591
 20
87.8106063667210179
 30
0.0
 10
152.1706912972817634
 20
88.1756785868810198
 30
0.0
 10
151.7626694041617554
 20
88.4548514611210237
 30
0.0
 10
151.2043236556817476
 20
88.5622256435210318
 30
0.0
 10
150.710402416641756
 20
88.4548514611210237
 30
0.0
 10
150.4956540518417398
 20
87.9394553856010219
 30
0.0
 10
150.431229542401752
 20
87.3811096371210141
 30
0.0
 10
150.7533520896017478
 20
87.0375122534410082
 30
0.0
 10
151.4620216934417556
 20
86.9516129075210102
 30
0.0
 10
152.1492164608017674
 20
87.1234115993610061
 30
0.0
 10
152.6216628633617631
 20
87.531433492481014
 30
0.0
 10
152.6860873728017793
 20
87.8320812032010139
 30
0.0
  0
SPLINE
  5
5D
  8
0
 62
256
370
40
  6
CONTINUOUS
100
AcDbEntity
100
AcDbSpline
 70
8
 71
3
 72
16
 73
12
 74
0
 40
0.0
 40
0.0
 40
0.0
 40
0.0
 40
0.1111111111111111
 40
0.2222222222222222
 40
0.3333333333333333
 40
0.4444444444444444
 40
0.5555555555555556
 40
0.6666666666666666
 40
0.7777777777777778
 40
0.8888888888888888
 40
1.0
 40
1.0
 40
1.0
 40
1.0
 10
152.8639460869909215
 20
87.8024282783080849
 30
0.0
 10
153.3621034581584865
 20
88.1315522105522575
 30
0.0
 10
153.7896586272000263
 20
88.3797777861936993
 30
0.0
 10
154.3544174090397973
 20
88.4455555045077944
 30
0.0
 10
154.8390426914665454
 20
88.3019388583497715
 30
0.0
 10
155.0150775154341147
 20
87.7720693313939222
 30
0.0
 10
155.0380232311250666
 20
87.2104876486498171
 30
0.0
 10
154.6913664186863002
 20
86.89165987088235
 30
0.0
 10
153.9782841772133963
 20
86.8584180007146642
 30
0.0
 10
153.3056805316261091
 20
87.0805795967378913
 30
0.0
 10
152.8647109441806151
 20
87.5224317117099417
 30
0.0
 10
152.8227026339156112
 20
87.8270213787153153
 30
0.0
  0
SPLINE
  5
5E
  8
0
 62
256
370
40
  6
CONTINUOUS
100
AcDbEntity
100
AcDbSpline
 70
8
 71
3
 72
16
 73
12
 74
0
 40
0.0
 40
0.0
 40
0.0
 40
0.0
 40
0.1111111111111111
 40
0.2222222222222222
 40
0.3333333333333333
 40
0.4444444444444444
 40
0.5555555555555556
 40
0.6666666666666666
 40
0.7777777777777778
 40
0.8888888888888888
 40
1.0
 40
1.0
 40
1.0
 40
1.0
 10
15.0175376998398136
 20
76.6039503667208521
 30
0.0
 10
14.5450912972798179
 20
76.969022586880854
 30
0.0
 10
14.1370694041598099
 20
77.2481954611208579
 30
0.0
 10
13.5787236556798021
 20
77.355569643520866
 30
0.0
 10
13.0848024166398105
 20
77.2481954611208579
 30
0.0
 10
12.8700540518397943
 20
76.7327993856008561
 30
0.0
 10
12.8056295423998066
 20
76.1744536371208483
 30
0.0
 10
13.1277520895998023
 20
75.8308562534408424
 30
0.0
 10
13.8364216934398101
 20
75.7449569075208444
 30
0.0
 10
14.5236164607998219
 20
75.9167555993608403
 30
0.0
 10
14.9960628633598176
 20
76.3247774924808482
 30
0.0
 10
15.0604873727998338
 20
76.625425203200848
 30
0.0
  0
SPLINE
  5
5F
  8
0
 62
256
370
40
  6
CONTINUOUS
100
AcDbEntity
100
AcDbSpline
 70
8
 71
3
 72
16
 73
12
 74
0
 40
0.0
 40
0.0
 40
0.0
 40
0.0
 40
0.1111111111111111
 40
0.2222222222222222
 40
0.3333333333333333
 40
0.4444444444444444
 40
0.5555555555555556
 40
0.6666666666666666
 40
0.7777777777777778
 40
0.8888888888888888
 40
1.0
 40
1.0
 40
1.0
 40
1.0
 10
15.238346086988976
 20
76.5957722783079191
 30
0.0
 10
15.7365034581565411
 20
76.9248962105520917
 30
0.0
 10
16.1640586271980808
 20
77.1731217861935335
 30
0.0
 10
16.7288174090378519
 20
77.2388995045076285
 30
0.0
 10
17.2134426914645999
 20
77.0952828583496057
 30
0.0
 10
17.3894775154321692
 20
76.5654133313937564
 30
0.0
 10
17.4124232311231211
 20
76.0038316486496512
 30
0.0
 10
17.0657664186843547
 20
75.6850038708821842
 30
0.0
 10
16.3526841772114508
 20
75.6517620007144984
 30
0.0
 10
15.6800805316241636
 20
75.8739235967377255
 30
0.0
 10
15.2391109441786696
 20
76.3157757117097759
 30
0.0
 10
15.1971026339136657
 20
76.6203653787151495
 30
0.0
  0
LEADER
  5
60
  8
0
 62
256
370
40
  6
CONTINUOUS
100
AcDbEntity
100
AcDbLeader
  3
Standard
 71
1
 72
0
 73
3
 74
0
 75
0
 40
1.0
 41
10.0
 76
2
 10
132.3827200000019957
 20
59.9654400000008962
 10
132.3827200000019957
 20
77.0662400000009882
  0
LEADER
  5
61
  8
0
 62
256
370
40
  6
CONTINUOUS
100
AcDbEntity
100
AcDbLeader
  3
Standard
 71
1
 72
0
 73
3
 74
0
 75
0
 40
1.0
 41
10.0
 76
2
 10
132.403200000002073
 20
63.5904000000009972
 10
132.5056000000020617
 20
74.0352000000011543
  0
MTEXT
  5
62
100
AcDbEntity
100
AcDbMText
  8
0
 62
256
370
40
  6
CONTINUOUS
 10
137.9328000000021461
 20
60.0064000000009372
 30
0.0
 40
8.0
 41
100.0
 71
5
 72
0
  1
V'
  7
normal
 50
0.0
 73
1
 44
1.0
  0
LINE
  5
63
100
AcDbEntity
100
AcDbLine
  8
0
 62
256
370
40
  6
CONTINUOUS
 10
134.0416000000020915
 20
65.4336000000010216
 30
0.0
 11
138.9056000000021243
 21
65.4336000000010216
 31
0.0
  0
MTEXT
  5
64
100
AcDbEntity
100
AcDbMText
  8
0
 62
256
370
40
  6
CONTINUOUS
 10
2.0480000000000347
 20
114.1964800000019409
 30
0.0
 40
8.0
 41
100.0
 71
5
 72
0
  1
V'
  7
normal
 50
0.0
 73
1
 44
1.0
  0
LEADER
  5
65
  8
0
 62
256
370
40
  6
CONTINUOUS
100
AcDbEntity
100
AcDbLeader
  3
Standard
 71
1
 72
0
 73
3
 74
0
 75
0
 40
1.0
 41
10.0
 76
2
 10
0.0819200000000014
 20
108.9536000000018561
 10
0.0819200000000014
 20
93.3536000000017765
  0
LINE
  5
66
100
AcDbEntity
100
AcDbLine
  8
0
 62
256
370
40
  6
CONTINUOUS
 10
-2.457600000000042
 20
120.0947200000020416
 30
0.0
 11
3.1948800000000546
 21
120.0947200000020416
 31
0.0
  0
ENDSEC
  0
SECTION
  2
OBJECTS
  0
DICTIONARY
  5
C
100
AcDbDictionary
280
0
281
1
  3
ACAD_GROUP
350
D
  3
ACAD_LAYOUT
350
1A
  3
ACAD_MLINESTYLE
350
17
  3
ACAD_PLOTSETTINGS
350
19
  3
ACAD_PLOTSTYLENAME
350
E
  3
AcDbVariableDictionary
350
67
  0
DICTIONARY
  5
D
100
AcDbDictionary
280
0
281
1
  0
ACDBDICTIONARYWDFLT
  5
E
100
AcDbDictionary
281
1
  3
Normal
350
F
100
AcDbDictionaryWithDefault
340
F
  0
ACDBPLACEHOLDER
  5
F
  0
DICTIONARY
  5
17
100
AcDbDictionary
280
0
281
1
  3
Standard
350
18
  0
MLINESTYLE
  5
18
100
AcDbMlineStyle
  2
STANDARD
 70
0
  3

 62
256
 51
90.0
 52
90.0
 71
2
 49
0.5
 62
256
  6
BYLAYER
 49
-0.5
 62
256
  6
BYLAYER
  0
DICTIONARY
  5
19
100
AcDbDictionary
280
0
281
1
  0
DICTIONARY
  5
1A
100
AcDbDictionary
281
1
  3
Layout1
350
1E
  3
Layout2
350
26
  3
Model
350
22
  0
LAYOUT
  5
1E
100
AcDbPlotSettings
  1

  2
C:\Program Files\AutoCAD 2002\plotters\DWF ePlot (optimized for plotting).pc3
  4

  6

 40
0.0
 41
0.0
 42
0.0
 43
0.0
 44
0.0
 45
0.0
 46
0.0
 47
0.0
 48
0.0
 49
0.0
140
0.0
141
0.0
142
1.0
143
1.0
 70
688
 72
0
 73
0
 74
5
  7

 75
16
147
1.0
148
0.0
149
0.0
100
AcDbLayout
  1
Layout1
 70
1
 71
1
 10
0.0
 20
0.0
 11
420.0
 21
297.0
 12
0.0
 22
0.0
 32
0.0
 14
100000000000000000000.0
 24
100000000000000000000.0
 34
100000000000000000000.0
 15
-100000000000000000000.0
 25
-100000000000000000000.0
 35
-100000000000000000000.0
146
0.0
 13
0.0
 23
0.0
 33
0.0
 16
1.0
 26
0.0
 36
0.0
 17
0.0
 27
1.0
 37
0.0
 76
0
330
1B
  0
LAYOUT
  5
22
100
AcDbPlotSettings
  1

  2
C:\Program Files\AutoCAD 2002\plotters\DWF ePlot (optimized for plotting).pc3
  4

  6

 40
0.0
 41
0.0
 42
0.0
 43
0.0
 44
0.0
 45
0.0
 46
0.0
 47
0.0
 48
0.0
 49
0.0
140
0.0
141
0.0
142
1.0
143
1.0
 70
1712
 72
0
 73
0
 74
0
  7

 75
0
147
1.0
148
0.0
149
0.0
100
AcDbLayout
  1
Model
 70
1
 71
0
 10
0.0
 20
0.0
 11
12.0
 21
9.0
 12
0.0
 22
0.0
 32
0.0
 14
0.0
 24
0.0
 34
0.0
 15
0.0
 25
0.0
 35
0.0
146
0.0
 13
0.0
 23
0.0
 33
0.0
 16
1.0
 26
0.0
 36
0.0
 17
0.0
 27
1.0
 37
0.0
 76
0
330
1F
  0
LAYOUT
  5
26
100
AcDbPlotSettings
  1

  2
C:\Program Files\AutoCAD 2002\plotters\DWF ePlot (optimized for plotting).pc3
  4

  6

 40
0.0
 41
0.0
 42
0.0
 43
0.0
 44
0.0
 45
0.0
 46
0.0
 47
0.0
 48
0.0
 49
0.0
140
0.0
141
0.0
142
1.0
143
1.0
 70
688
 72
0
 73
0
 74
5
  7

 75
16
147
1.0
148
0.0
149
0.0
100
AcDbLayout
  1
Layout2
 70
1
 71
2
 10
0.0
 20
0.0
 11
12.0
 21
9.0
 12
0.0
 22
0.0
 32
0.0
 14
0.0
 24
0.0
 34
0.0
 15
0.0
 25
0.0
 35
0.0
146
0.0
 13
0.0
 23
0.0
 33
0.0
 16
1.0
 26
0.0
 36
0.0
 17
0.0
 27
1.0
 37
0.0
 76
0
330
23
  0
DICTIONARY
  5
67
100
AcDbDictionary
281
1
  3
DIMASSOC
350
69
  3
HIDETEXT
350
68
  0
DICTIONARYVAR
  5
68
100
DictionaryVariables
280
0
  1
2
  0
DICTIONARYVAR
  5
69
100
DictionaryVariables
280
0
  1
1
  0
ENDSEC
  0
EOF
