999
dxflib 2.0.4.8
  0
SECTION
  2
HEADER
  9
$ACADVER
  1
AC1015
  9
$HANDSEED
  5
FFFF
  9
$DIMASZ
 40
2.5
  9
$DIMGAP
 40
0.625
  9
$DIMEXO
 40
0.625
  9
$INSUNITS
 70
4
  9
$DIMTXT
 40
2.5
  9
$DIMSTYLE
  2
Standard
  9
$PLIMMAX
 10
210.0
 20
297.0
  9
$PLIMMIN
 10
0.0
 20
0.0
  9
$DIMEXE
 40
1.25
  0
ENDSEC
  0
SECTION
  2
TABLES
  0
TABLE
  2
VPORT
  5
8
100
AcDbSymbolTable
 70
1
  0
VPORT
  5
30
100
AcDbSymbolTableRecord
100
AcDbViewportTableRecord
  2
*Active
 70
0
 10
0.0
 20
0.0
 11
1.0
 21
1.0
 12
286.3055555555554861
 22
148.5
 13
0.0
 23
0.0
 14
10.0
 24
10.0
 15
10.0
 25
10.0
 16
0.0
 26
0.0
 36
1.0
 17
0.0
 27
0.0
 37
0.0
 40
297.0
 41
1.92798353909465
 42
50.0
 43
0.0
 44
0.0
 50
0.0
 51
0.0
 71
0
 72
100
 73
1
 74
3
 75
1
 76
1
 77
0
 78
0
281
0
 65
1
110
0.0
120
0.0
130
0.0
111
1.0
121
0.0
131
0.0
112
0.0
122
1.0
132
0.0
 79
0
146
0.0
  0
ENDTAB
  0
TABLE
  2
LTYPE
  5
5
100
AcDbSymbolTable
 70
21
  0
LTYPE
  5
14
100
AcDbSymbolTableRecord
100
AcDbLinetypeTableRecord
  2
ByBlock
 70
0
  3

 72
65
 73
0
 40
0.0
  0
LTYPE
  5
15
100
AcDbSymbolTableRecord
100
AcDbLinetypeTableRecord
  2
ByLayer
 70
0
  3

 72
65
 73
0
 40
0.0
  0
LTYPE
  5
16
100
AcDbSymbolTableRecord
100
AcDbLinetypeTableRecord
  2
CONTINUOUS
 70
0
  3
Solid line
 72
65
 73
0
 40
0.0
  0
LTYPE
  5
31
100
AcDbSymbolTableRecord
100
AcDbLinetypeTableRecord
  2
DOT
 70
0
  3
Dot . . . . . . . . . . . . . . . . . . . . . .
 72
65
 73
2
 40
6.3499999999999996
 49
0.0
 74
0
 49
-6.3499999999999996
 74
0
  0
LTYPE
  5
32
100
AcDbSymbolTableRecord
100
AcDbLinetypeTableRecord
  2
DOT2
 70
0
  3
Dot (.5x) .....................................
 72
65
 73
2
 40
3.1749999999999998
 49
0.0
 74
0
 49
-3.1749999999999998
 74
0
  0
LTYPE
  5
33
100
AcDbSymbolTableRecord
100
AcDbLinetypeTableRecord
  2
DOTX2
 70
0
  3
Dot (2x) .  .  .  .  .  .  .  .  .  .  .  .  .
 72
65
 73
2
 40
12.6999999999999993
 49
0.0
 74
0
 49
-12.6999999999999993
 74
0
  0
LTYPE
  5
34
100
AcDbSymbolTableRecord
100
AcDbLinetypeTableRecord
  2
DASHED
 70
0
  3
Dashed __ __ __ __ __ __ __ __ __ __ __ __ __ _
 72
65
 73
2
 40
19.0500000000000007
 49
12.6999999999999993
 74
0
 49
-6.3499999999999996
 74
0
  0
LTYPE
  5
35
100
AcDbSymbolTableRecord
100
AcDbLinetypeTableRecord
  2
DASHED2
 70
0
  3
Dashed (.5x) _ _ _ _ _ _ _ _ _ _ _ _ _ _ _ _ _
 72
65
 73
2
 40
9.5250000000000004
 49
6.3499999999999996
 74
0
 49
-3.1749999999999998
 74
0
  0
LTYPE
  5
36
100
AcDbSymbolTableRecord
100
AcDbLinetypeTableRecord
  2
DASHEDX2
 70
0
  3
Dashed (2x) ____  ____  ____  ____  ____  ___
 72
65
 73
2
 40
38.1000000000000014
 49
25.3999999999999986
 74
0
 49
-12.6999999999999993
 74
0
  0
LTYPE
  5
37
100
AcDbSymbolTableRecord
100
AcDbLinetypeTableRecord
  2
DASHDOT
 70
0
  3
Dash dot __ . __ . __ . __ . __ . __ . __ . __
 72
65
 73
4
 40
25.3999999999999986
 49
12.6999999999999993
 74
0
 49
-6.3499999999999996
 74
0
 49
0.0
 74
0
 49
-6.3499999999999996
 74
0
  0
LTYPE
  5
38
100
AcDbSymbolTableRecord
100
AcDbLinetypeTableRecord
  2
DASHDOT2
 70
0
  3
Dash dot (.5x) _._._._._._._._._._._._._._._.
 72
65
 73
4
 40
12.6999999999999993
 49
6.3499999999999996
 74
0
 49
-3.1749999999999998
 74
0
 49
0.0
 74
0
 49
-3.1749999999999998
 74
0
  0
LTYPE
  5
39
100
AcDbSymbolTableRecord
100
AcDbLinetypeTableRecord
  2
DASHDOTX2
 70
0
  3
Dash dot (2x) ____  .  ____  .  ____  .  ___
 72
65
 73
4
 40
50.7999999999999972
 49
25.3999999999999986
 74
0
 49
-12.6999999999999993
 74
0
 49
0.0
 74
0
 49
-12.6999999999999993
 74
0
  0
LTYPE
  5
3A
100
AcDbSymbolTableRecord
100
AcDbLinetypeTableRecord
  2
DIVIDE
 70
0
  3
Divide ____ . . ____ . . ____ . . ____ . . ____
 72
65
 73
6
 40
31.75
 49
12.6999999999999993
 74
0
 49
-6.3499999999999996
 74
0
 49
0.0
 74
0
 49
-6.3499999999999996
 74
0
 49
0.0
 74
0
 49
-6.3499999999999996
 74
0
  0
LTYPE
  5
3B
100
AcDbSymbolTableRecord
100
AcDbLinetypeTableRecord
  2
DIVIDE2
 70
0
  3
Divide (.5x) __..__..__..__..__..__..__..__.._
 72
65
 73
6
 40
15.875
 49
6.3499999999999996
 74
0
 49
-3.1749999999999998
 74
0
 49
0.0
 74
0
 49
-3.1749999999999998
 74
0
 49
0.0
 74
0
 49
-3.1749999999999998
 74
0
  0
LTYPE
  5
3C
100
AcDbSymbolTableRecord
100
AcDbLinetypeTableRecord
  2
DIVIDEX2
 70
0
  3
Divide (2x) ________  .  .  ________  .  .  _
 72
65
 73
6
 40
63.5
 49
25.3999999999999986
 74
0
 49
-12.6999999999999993
 74
0
 49
0.0
 74
0
 49
-12.6999999999999993
 74
0
 49
0.0
 74
0
 49
-12.6999999999999993
 74
0
  0
LTYPE
  5
3D
100
AcDbSymbolTableRecord
100
AcDbLinetypeTableRecord
  2
CENTER
 70
0
  3
Center ____ _ ____ _ ____ _ ____ _ ____ _ ____
 72
65
 73
4
 40
50.7999999999999972
 49
31.75
 74
0
 49
-6.3499999999999996
 74
0
 49
6.3499999999999996
 74
0
 49
-6.3499999999999996
 74
0
  0
LTYPE
  5
3E
100
AcDbSymbolTableRecord
100
AcDbLinetypeTableRecord
  2
CENTER2
 70
0
  3
Center (.5x) ___ _ ___ _ ___ _ ___ _ ___ _ ___
 72
65
 73
4
 40
28.5749999999999993
 49
19.0500000000000007
 74
0
 49
-3.1749999999999998
 74
0
 49
3.1749999999999998
 74
0
 49
-3.1749999999999998
 74
0
  0
LTYPE
  5
3F
100
AcDbSymbolTableRecord
100
AcDbLinetypeTableRecord
  2
CENTERX2
 70
0
  3
Center (2x) ________  __  ________  __  _____
 72
65
 73
4
 40
101.5999999999999943
 49
63.5
 74
0
 49
-12.6999999999999993
 74
0
 49
12.6999999999999993
 74
0
 49
-12.6999999999999993
 74
0
  0
LTYPE
  5
40
100
AcDbSymbolTableRecord
100
AcDbLinetypeTableRecord
  2
BORDER
 70
0
  3
Border __ __ . __ __ . __ __ . __ __ . __ __ .
 72
65
 73
6
 40
44.4500000000000028
 49
12.6999999999999993
 74
0
 49
-6.3499999999999996
 74
0
 49
12.6999999999999993
 74
0
 49
-6.3499999999999996
 74
0
 49
0.0
 74
0
 49
-6.3499999999999996
 74
0
  0
LTYPE
  5
41
100
AcDbSymbolTableRecord
100
AcDbLinetypeTableRecord
  2
BORDER2
 70
0
  3
Border (.5x) __.__.__.__.__.__.__.__.__.__.__.
 72
65
 73
6
 40
22.2250000000000014
 49
6.3499999999999996
 74
0
 49
-3.1749999999999998
 74
0
 49
6.3499999999999996
 74
0
 49
-3.1749999999999998
 74
0
 49
0.0
 74
0
 49
-3.1749999999999998
 74
0
  0
LTYPE
  5
42
100
AcDbSymbolTableRecord
100
AcDbLinetypeTableRecord
  2
BORDERX2
 70
0
  3
Border (2x) ____  ____  .  ____  ____  .  ___
 72
65
 73
6
 40
88.9000000000000057
 49
25.3999999999999986
 74
0
 49
-12.6999999999999993
 74
0
 49
25.3999999999999986
 74
0
 49
-12.6999999999999993
 74
0
 49
0.0
 74
0
 49
-12.6999999999999993
 74
0
  0
ENDTAB
  0
TABLE
  2
LAYER
  5
2
100
AcDbSymbolTable
 70
1
  0
LAYER
  5
10
100
AcDbSymbolTableRecord
100
AcDbLayerTableRecord
  2
0
 70
0
 62
7
  6
CONTINUOUS
370
0
390
F
  0
ENDTAB
  0
TABLE
  2
STYLE
  5
3
100
AcDbSymbolTable
 70
1
  0
STYLE
  5
11
100
AcDbSymbolTableRecord
100
AcDbTextStyleTableRecord
  2
Standard
 70
0
 40
0.0
 41
0.75
 50
0.0
 71
0
 42
2.5
  3
txt
  4

  0
ENDTAB
  0
TABLE
  2
VIEW
  5
6
100
AcDbSymbolTable
 70
0
  0
ENDTAB
  0
TABLE
  2
UCS
  5
7
100
AcDbSymbolTable
 70
0
  0
ENDTAB
  0
TABLE
  2
APPID
  5
9
100
AcDbSymbolTable
 70
1
  0
APPID
  5
12
100
AcDbSymbolTableRecord
100
AcDbRegAppTableRecord
  2
ACAD
 70
0
  0
ENDTAB
  0
TABLE
  2
DIMSTYLE
  5
A
100
AcDbSymbolTable
 70
1
100
AcDbDimStyleTable
 71
0
  0
DIMSTYLE
105
27
100
AcDbSymbolTableRecord
100
AcDbDimStyleTableRecord
  2
Standard
 41
2.5
 42
0.625
 43
3.75
 44
1.25
 70
0
 73
0
 74
0
 77
1
 78
8
140
2.5
141
2.5
143
0.03937007874016
147
0.625
171
3
172
1
271
2
272
2
274
3
278
44
283
0
284
8
340
11
  0
ENDTAB
  0
TABLE
  2
BLOCK_RECORD
  5
1
100
AcDbSymbolTable
 70
1
  0
BLOCK_RECORD
  5
1F
100
AcDbSymbolTableRecord
100
AcDbBlockTableRecord
  2
*Model_Space
340
22
  0
BLOCK_RECORD
  5
1B
100
AcDbSymbolTableRecord
100
AcDbBlockTableRecord
  2
*Paper_Space
340
1E
  0
BLOCK_RECORD
  5
23
100
AcDbSymbolTableRecord
100
AcDbBlockTableRecord
  2
*Paper_Space0
340
26
  0
ENDTAB
  0
ENDSEC
  0
SECTION
  2
BLOCKS
  0
BLOCK
  5
20
100
AcDbEntity
  8
0
100
AcDbBlockBegin
  2
*Model_Space
 70
0
 10
0.0
 20
0.0
 30
0.0
  3
*Model_Space
  1

  0
ENDBLK
  5
21
100
AcDbEntity
  8
0
100
AcDbBlockEnd
  0
BLOCK
  5
1C
100
AcDbEntity
 67
1
  8
0
100
AcDbBlockBegin
  2
*Paper_Space
 70
0
 10
0.0
 20
0.0
 30
0.0
  3
*Paper_Space
  1

  0
ENDBLK
  5
1D
100
AcDbEntity
 67
1
  8
0
100
AcDbBlockEnd
  0
BLOCK
  5
24
100
AcDbEntity
  8
0
100
AcDbBlockBegin
  2
*Paper_Space0
 70
0
 10
0.0
 20
0.0
 30
0.0
  3
*Paper_Space0
  1

  0
ENDBLK
  5
25
100
AcDbEntity
  8
0
100
AcDbBlockEnd
  0
ENDSEC
  0
SECTION
  2
ENTITIES
  0
LINE
  5
43
100
AcDbEntity
100
AcDbLine
  8
0
 62
256
370
-1
  6
ByLayer
 10
115.7350666149678915
 20
16.3136330112777017
 30
0.0
 11
115.7350666149678915
 21
116.3136330112777159
 31
0.0
  0
LINE
  5
44
100
AcDbEntity
100
AcDbLine
  8
0
 62
256
370
-1
  6
ByLayer
 10
15.2467853649678773
 20
65.8253517612777017
 30
0.0
 11
215.2467853649678773
 21
65.8253517612777017
 31
0.0
  0
LINE
  5
45
100
AcDbEntity
100
AcDbLine
  8
0
 62
256
370
-1
  6
ByLayer
 10
66.2965900524669962
 20
65.8253517612777159
 30
0.0
 11
165.7838947399687868
 21
65.8253517612777159
 31
0.0
  0
LINE
  5
46
100
AcDbEntity
100
AcDbLine
  8
0
 62
256
370
-1
  6
ByLayer
 10
165.7838947399687868
 20
65.8253517612777159
 30
0.0
 11
165.7838947399687868
 21
31.6456642612770906
 31
0.0
  0
LINE
  5
47
100
AcDbEntity
100
AcDbLine
  8
0
 62
256
370
-1
  6
ByLayer
 10
165.7838947399687868
 20
31.6456642612770906
 30
0.0
 11
66.2965900524669962
 21
31.6456642612770906
 31
0.0
  0
LINE
  5
48
100
AcDbEntity
100
AcDbLine
  8
0
 62
256
370
-1
  6
ByLayer
 10
66.2965900524669962
 20
31.6456642612770906
 30
0.0
 11
66.2965900524669962
 21
65.8253517612777159
 31
0.0
  0
MTEXT
  5
49
100
AcDbEntity
100
AcDbMText
  8
0
 62
256
370
-1
  6
ByLayer
 10
165.2327228649683093
 20
84.527695511279191
 30
0.0
 40
14.0
 41
100.0
 71
2
 72
2
  1
a
  7
normal
 50
0.0
 73
1
 44
1.0
  0
LINE
  5
4A
100
AcDbEntity
100
AcDbLine
  8
0
 62
256
370
-1
  6
ByLayer
 10
165.7632188649682519
 20
64.0316955112787412
 30
0.0
 11
165.8287548649682606
 21
69.0124315112788764
 31
0.0
  0
MTEXT
  5
4B
100
AcDbEntity
100
AcDbMText
  8
0
 62
256
370
35
  6
ByLayer
 10
106.7702228649657172
 20
109.1651955112811265
 30
0.0
 40
14.0
 41
100.0
 71
2
 72
2
  1
U
  7
normal
 50
0.0
 73
1
 44
1.0
  0
MTEXT
  5
4C
100
AcDbEntity
100
AcDbMText
  8
0
 62
256
370
35
  6
ByLayer
 10
23.5719806774592371
 20
112.2120705112838834
 30
0.0
 40
16.0
 41
100.0
 71
2
 72
2
  1
1)
  7
normal
 50
0.0
 73
1
 44
1.0
  0
MTEXT
  5
4D
100
AcDbEntity
100
AcDbMText
  8
0
 62
256
370
35
  6
ByLayer
 10
171.3991291149658593
 20
26.2745705112811194
 30
0.0
 40
14.0
 41
100.0
 71
2
 72
2
  1
Uo
  7
normal
 50
0.0
 73
1
 44
1.0
  0
LINE
  5
4E
100
AcDbEntity
100
AcDbLine
  8
0
 62
256
370
35
  6
ByLayer
 10
471.2501967689732965
 20
65.1810249476096573
 30
0.0
 11
671.2501967689732965
 21
65.1810249476096573
 31
0.0
  0
LINE
  5
4F
100
AcDbEntity
100
AcDbLine
  8
0
 62
256
370
35
  6
ByLayer
 10
571.2501967689732965
 20
14.5706733851096004
 30
0.0
 11
571.2501967689732965
 21
114.5706733851096146
 31
0.0
  0
LINE
  5
50
100
AcDbEntity
100
AcDbLine
  8
0
 62
256
370
35
  6
ByLayer
 10
620.2309096596025029
 20
60.0284370569846004
 30
0.0
 11
620.2309096596025029
 21
70.0284370569846004
 31
0.0
  0
SPLINE
  5
51
  8
0
 62
256
370
35
  6
ByLayer
100
AcDbEntity
100
AcDbSpline
 70
8
 71
3
 72
8
 73
4
 74
0
 40
0.0
 40
0.0
 40
0.0
 40
0.0
 40
1.0
 40
1.0
 40
1.0
 40
1.0
 10
582.3478530189740923
 20
21.6136421351049961
 30
0.0
 10
581.6454530189739671
 20
20.7996421351050316
 30
0.0
 10
587.347853018974547
 20
57.8236421351082157
 30
0.0
 10
635.8478530189788671
 20
57.8636421351082362
 30
0.0
  0
LINE
  5
52
100
AcDbEntity
100
AcDbLine
  8
0
 62
256
370
35
  6
ByLayer
 10
571.2501967689722733
 20
14.5706733851096004
 30
0.0
 11
571.250196768972387
 21
114.5706733851096146
 31
0.0
  0
SPLINE
  5
53
  8
0
 62
256
370
35
  6
ByLayer
100
AcDbEntity
100
AcDbSpline
 70
8
 71
3
 72
8
 73
4
 74
0
 40
0.0
 40
0.0
 40
0.0
 40
0.0
 40
1.0
 40
1.0
 40
1.0
 40
1.0
 10
560.1525405189715912
 20
21.6136421351049961
 30
0.0
 10
560.8549405189717163
 20
20.7996421351050316
 30
0.0
 10
561.4009319431715994
 20
61.4247443153513899
 30
0.0
 10
506.6525405189668732
 20
57.863642135108293
 30
0.0
  0
MTEXT
  5
54
100
AcDbEntity
100
AcDbMText
  8
0
 62
256
370
35
  6
ByLayer
 10
624.0456069252276166
 20
40.6143745569805645
 30
0.0
 40
14.0
 41
100.0
 71
2
 72
2
  1
-Uo/a
  7
normal
 50
0.0
 73
1
 44
1.0
  0
MTEXT
  5
55
100
AcDbEntity
100
AcDbMText
  8
0
 62
256
370
35
  6
ByLayer
 10
620.2309096596022755
 20
90.2054390101101689
 30
0.0
 40
14.0
 41
100.0
 71
2
 72
2
  1
a
  7
normal
 50
0.0
 73
1
 44
1.0
  0
MTEXT
  5
56
100
AcDbEntity
100
AcDbMText
  8
0
 62
256
370
35
  6
ByLayer
 10
482.1388686439644857
 20
103.9383491663614336
 30
0.0
 40
16.0
 41
100.0
 71
2
 72
2
  1
3)
  7
normal
 50
0.0
 73
1
 44
1.0
  0
LINE
  5
57
100
AcDbEntity
100
AcDbLine
  8
0
 62
256
370
35
  6
ByLayer
 10
241.8105657016268708
 20
65.7349110645199204
 30
0.0
 11
441.8105657016268424
 21
65.7349110645199204
 31
0.0
  0
LINE
  5
58
100
AcDbEntity
100
AcDbLine
  8
0
 62
256
370
35
  6
ByLayer
 10
341.8105657016268424
 20
16.1255360645199488
 30
0.0
 11
341.8105657016268424
 21
116.125536064519963
 31
0.0
  0
ELLIPSE
  5
59
100
AcDbEntity
100
AcDbEllipse
  8
0
 62
256
370
35
  6
ByLayer
 10
389.0761907016279793
 20
36.4380360645146339
 30
0.0
 11
-47.2656250000039435
 21
-5.8593750000004832
 31
0.0
 40
0.4901116642001885
 41
4.3303685097262186
 42
6.1666386086217422
  0
LINE
  5
5A
100
AcDbEntity
100
AcDbLine
  8
0
 62
256
370
35
  6
ByLayer
 10
441.8105657016212149
 20
65.7349110645199204
 30
0.0
 11
241.8105657016212433
 21
65.7349110645199346
 31
0.0
  0
LINE
  5
5B
100
AcDbEntity
100
AcDbLine
  8
0
 62
256
370
35
  6
ByLayer
 10
341.8105657016212149
 20
16.1255360645199488
 30
0.0
 11
341.8105657016212717
 21
116.125536064519963
 31
0.0
  0
ELLIPSE
  5
5C
100
AcDbEntity
100
AcDbEllipse
  8
0
 62
256
370
35
  6
ByLayer
 10
294.5449407016201349
 20
36.4380360645147192
 30
0.0
 11
47.2656250000039364
 21
-5.8593750000005684
 31
0.0
 40
0.4901116642001885
 41
0.1165466985578441
 42
1.9528167974533677
  0
LINE
  5
5D
100
AcDbEntity
100
AcDbLine
  8
0
 62
256
370
35
  6
ByLayer
 10
391.4980657016281498
 20
60.8130360645170072
 30
0.0
 11
391.4980657016281498
 21
70.8130360645170072
 31
0.0
  0
MTEXT
  5
5E
100
AcDbEntity
100
AcDbMText
  8
0
 62
256
370
35
  6
ByLayer
 10
251.0757024203662411
 20
110.4309559863957588
 30
0.0
 40
16.0
 41
100.0
 71
2
 72
2
  1
2)
  7
normal
 50
0.0
 73
1
 44
1.0
  0
MTEXT
  5
5F
100
AcDbEntity
100
AcDbMText
  8
0
 62
256
370
35
  6
ByLayer
 10
391.5605657016280929
 20
88.1255360645187977
 30
0.0
 40
14.0
 41
100.0
 71
2
 72
2
  1
a
  7
normal
 50
0.0
 73
1
 44
1.0
  0
MTEXT
  5
60
100
AcDbEntity
100
AcDbMText
  8
0
 62
256
370
35
  6
ByLayer
 10
393.1731755649094566
 20
49.7772694629529298
 30
0.0
 40
14.0
 41
100.0
 71
2
 72
2
  1
-Uo/a
  7
normal
 50
0.0
 73
1
 44
1.0
  0
LINE
  5
61
100
AcDbEntity
100
AcDbLine
  8
0
 62
256
370
35
  6
ByLayer
 10
150.3652640448693774
 20
-57.036205774746179
 30
0.0
 11
350.3652640448693774
 21
-57.036205774746179
 31
0.0
  0
LINE
  5
62
100
AcDbEntity
100
AcDbLine
  8
0
 62
256
370
35
  6
ByLayer
 10
250.3652640448693774
 20
-107.0362057747461222
 30
0.0
 11
250.3652640448693774
 21
-7.0362057747461222
 31
0.0
  0
LINE
  5
63
100
AcDbEntity
100
AcDbLine
  8
0
 62
256
370
35
  6
ByLayer
 10
299.1933890448739248
 20
-62.7991452278712927
 30
0.0
 11
299.1933890448739248
 21
-52.7991452278712927
 31
0.0
  0
SPLINE
  5
64
  8
0
 62
256
370
35
  6
ByLayer
100
AcDbEntity
100
AcDbSpline
 70
8
 71
3
 72
9
 73
5
 74
0
 40
0.0
 40
0.0
 40
0.0
 40
0.0
 40
0.5
 40
1.0
 40
1.0
 40
1.0
 40
1.0
 10
249.9978324042442637
 20
-99.1858639778756697
 30
0.0
 10
281.1903324042471013
 20
-100.9268639778769057
 30
0.0
 10
276.5823324042465856
 20
-74.6868639778742818
 30
0.0
 10
299.0603324042488111
 20
-68.5608639778728275
 30
0.0
 10
318.6943324042506447
 20
-68.7988639778737365
 30
0.0
  0
LINE
  5
65
100
AcDbEntity
100
AcDbLine
  8
0
 62
256
370
35
  6
ByLayer
 10
250.2554007636184679
 20
-107.0362057747461222
 30
0.0
 11
250.2554007636185815
 21
-7.0362057747461222
 31
0.0
  0
SPLINE
  5
66
  8
0
 62
256
370
35
  6
ByLayer
100
AcDbEntity
100
AcDbSpline
 70
8
 71
3
 72
9
 73
5
 74
0
 40
0.0
 40
0.0
 40
0.0
 40
0.0
 40
0.5
 40
1.0
 40
1.0
 40
1.0
 40
1.0
 10
250.6228324042436952
 20
-99.1858639778756697
 30
0.0
 10
219.4303324042408576
 20
-100.9268639778769057
 30
0.0
 10
224.0383324042412596
 20
-74.6868639778742818
 30
0.0
 10
201.5603324042390341
 20
-68.5608639778728275
 30
0.0
 10
181.9263324042372005
 20
-68.7988639778737934
 30
0.0
  0
MTEXT
  5
67
100
AcDbEntity
100
AcDbMText
  8
0
 62
256
370
35
  6
ByLayer
 10
160.368926154235055
 20
-14.83039522786936
 30
0.0
 40
16.0
 41
100.0
 71
2
 72
2
  1
4)
  7
normal
 50
0.0
 73
1
 44
1.0
  0
MTEXT
  5
68
100
AcDbEntity
100
AcDbMText
  8
0
 62
256
370
35
  6
ByLayer
 10
282.9275199042471058
 20
-96.373363977877375
 30
0.0
 40
14.0
 41
100.0
 71
2
 72
2
  1
-Uo
  7
normal
 50
0.0
 73
1
 44
1.0
  0
MTEXT
  5
69
100
AcDbEntity
100
AcDbMText
  8
0
 62
256
370
35
  6
ByLayer
 10
318.5720511542506301
 20
-72.9358639778749875
 30
0.0
 40
14.0
 41
100.0
 71
2
 72
2
  1
-Uo/2
  7
normal
 50
0.0
 73
1
 44
1.0
  0
MTEXT
  5
6A
100
AcDbEntity
100
AcDbMText
  8
0
 62
256
370
35
  6
ByLayer
 10
299.0408011542486975
 20
-32.8968014778711222
 30
0.0
 40
14.0
 41
100.0
 71
2
 72
2
  1
a
  7
normal
 50
0.0
 73
1
 44
1.0
  0
LINE
  5
6B
100
AcDbEntity
100
AcDbLine
  8
0
 62
256
370
35
  6
ByLayer
 10
355.2560155062822105
 20
-57.7685663071050897
 30
0.0
 11
555.2560155062823242
 21
-57.7685663071050897
 31
0.0
  0
LINE
  5
6C
100
AcDbEntity
100
AcDbLine
  8
0
 62
256
370
35
  6
ByLayer
 10
455.2560155062822105
 20
-106.8148919906988397
 30
0.0
 11
455.2560155062822105
 21
-6.8148919906988112
 31
0.0
  0
LINE
  5
6D
100
AcDbEntity
100
AcDbLine
  8
0
 62
256
370
35
  6
ByLayer
 10
473.3605687289401658
 20
-18.9044305649146054
 30
0.0
 11
473.3918187289401658
 21
-89.1716180649222281
 31
0.0
  0
SPLINE
  5
6E
  8
0
 62
256
370
35
  6
ByLayer
100
AcDbEntity
100
AcDbSpline
 70
8
 71
3
 72
11
 73
7
 74
0
 40
0.0
 40
0.0
 40
0.0
 40
0.0
 40
0.25
 40
0.5
 40
0.75
 40
1.0
 40
1.0
 40
1.0
 40
1.0
 10
473.1918187289401203
 20
-89.1716180649222281
 30
0.0
 10
475.3918187289402795
 20
-101.5716180649234559
 30
0.0
 10
492.7918187289420757
 20
-98.9716180649232058
 30
0.0
 10
492.5918187289420302
 20
-83.7716180649216824
 30
0.0
 10
505.79181872894344
 20
-71.1716180649204091
 30
0.0
 10
519.1918187289446678
 20
-68.3716180649201135
 30
0.0
 10
538.5918187289468051
 20
-66.9716180649200226
 30
0.0
  0
LINE
  5
6F
100
AcDbEntity
100
AcDbLine
  8
0
 62
256
370
35
  6
ByLayer
 10
555.3323094515943694
 20
-57.7685663071050897
 30
0.0
 11
355.3323094515942557
 21
-57.7685663071050897
 31
0.0
  0
LINE
  5
70
100
AcDbEntity
100
AcDbLine
  8
0
 62
256
370
35
  6
ByLayer
 10
455.3323094515942557
 20
-106.8148919906988397
 30
0.0
 11
455.3323094515942557
 21
-6.8148919906988112
 31
0.0
  0
LINE
  5
71
100
AcDbEntity
100
AcDbLine
  8
0
 62
256
370
35
  6
ByLayer
 10
437.2277562289363004
 20
-18.9044305649146054
 30
0.0
 11
437.1965062289363004
 21
-89.1716180649222281
 31
0.0
  0
SPLINE
  5
72
  8
0
 62
256
370
35
  6
ByLayer
100
AcDbEntity
100
AcDbSpline
 70
8
 71
3
 72
11
 73
7
 74
0
 40
0.0
 40
0.0
 40
0.0
 40
0.0
 40
0.25
 40
0.5
 40
0.75
 40
1.0
 40
1.0
 40
1.0
 40
1.0
 10
437.3965062289363459
 20
-89.1716180649222281
 30
0.0
 10
435.1965062289361867
 20
-101.5716180649234559
 30
0.0
 10
417.7965062289343905
 20
-98.9716180649232058
 30
0.0
 10
417.9965062289343223
 20
-83.7716180649216824
 30
0.0
 10
404.7965062289329126
 20
-71.1716180649204091
 30
0.0
 10
391.3965062289316847
 20
-68.3716180649201135
 30
0.0
 10
371.9965062289296611
 20
-66.9716180649200226
 30
0.0
  0
MTEXT
  5
73
100
AcDbEntity
100
AcDbMText
  8
0
 62
256
370
35
  6
ByLayer
 10
366.9152562289289108
 20
-13.5333368149157423
 30
0.0
 40
16.0
 41
100.0
 71
2
 72
2
  1
5)
  7
normal
 50
0.0
 73
1
 44
1.0
  0
MTEXT
  5
74
100
AcDbEntity
100
AcDbMText
  8
0
 62
256
370
35
  6
ByLayer
 10
513.8879124789440311
 20
-79.4513055649225919
 30
0.0
 40
14.0
 41
100.0
 71
2
 72
2
  1
-Uo
  7
normal
 50
0.0
 73
1
 44
1.0
  0
MTEXT
  5
75
100
AcDbEntity
100
AcDbMText
  8
0
 62
256
370
35
  6
ByLayer
 10
473.3694187289398769
 20
-57.6756180649211103
 30
0.0
 40
18.0
 41
100.0
 71
2
 72
2
  1
.
  7
normal
 50
0.0
 73
1
 44
1.0
  0
LINE
  5
76
100
AcDbEntity
100
AcDbLine
  8
0
 62
256
370
35
  6
ByLayer
 10
503.8934056430056216
 20
-62.7685663071102056
 30
0.0
 11
503.8934056430056216
 21
-52.7685663071102056
 31
0.0
  0
MTEXT
  5
77
100
AcDbEntity
100
AcDbMText
  8
0
 62
256
370
35
  6
ByLayer
 10
504.1222874789428943
 20
-32.0880243149204318
 30
0.0
 40
14.0
 41
100.0
 71
2
 72
2
  1
a
  7
normal
 50
0.0
 73
1
 44
1.0
  0
MTEXT
  5
78
100
AcDbEntity
100
AcDbMText
  8
0
 62
256
370
35
  6
ByLayer
 10
480.6847874789403932
 20
-32.5763055649205455
 30
0.0
 40
14.0
 41
100.0
 71
2
 72
2
  1
b
  7
normal
 50
0.0
 73
1
 44
1.0
  0
ENDSEC
  0
SECTION
  2
OBJECTS
  0
DICTIONARY
  5
C
100
AcDbDictionary
280
0
281
1
  3
ACAD_GROUP
350
D
  3
ACAD_LAYOUT
350
1A
  3
ACAD_MLINESTYLE
350
17
  3
ACAD_PLOTSETTINGS
350
19
  3
ACAD_PLOTSTYLENAME
350
E
  3
AcDbVariableDictionary
350
79
  0
DICTIONARY
  5
D
100
AcDbDictionary
280
0
281
1
  0
ACDBDICTIONARYWDFLT
  5
E
100
AcDbDictionary
281
1
  3
Normal
350
F
100
AcDbDictionaryWithDefault
340
F
  0
ACDBPLACEHOLDER
  5
F
  0
DICTIONARY
  5
17
100
AcDbDictionary
280
0
281
1
  3
Standard
350
18
  0
MLINESTYLE
  5
18
100
AcDbMlineStyle
  2
STANDARD
 70
0
  3

 62
256
 51
90.0
 52
90.0
 71
2
 49
0.5
 62
256
  6
BYLAYER
 49
-0.5
 62
256
  6
BYLAYER
  0
DICTIONARY
  5
19
100
AcDbDictionary
280
0
281
1
  0
DICTIONARY
  5
1A
100
AcDbDictionary
281
1
  3
Layout1
350
1E
  3
Layout2
350
26
  3
Model
350
22
  0
LAYOUT
  5
1E
100
AcDbPlotSettings
  1

  2
C:\Program Files\AutoCAD 2002\plotters\DWF ePlot (optimized for plotting).pc3
  4

  6

 40
0.0
 41
0.0
 42
0.0
 43
0.0
 44
0.0
 45
0.0
 46
0.0
 47
0.0
 48
0.0
 49
0.0
140
0.0
141
0.0
142
1.0
143
1.0
 70
688
 72
0
 73
0
 74
5
  7

 75
16
147
1.0
148
0.0
149
0.0
100
AcDbLayout
  1
Layout1
 70
1
 71
1
 10
0.0
 20
0.0
 11
420.0
 21
297.0
 12
0.0
 22
0.0
 32
0.0
 14
100000000000000000000.0
 24
100000000000000000000.0
 34
100000000000000000000.0
 15
-100000000000000000000.0
 25
-100000000000000000000.0
 35
-100000000000000000000.0
146
0.0
 13
0.0
 23
0.0
 33
0.0
 16
1.0
 26
0.0
 36
0.0
 17
0.0
 27
1.0
 37
0.0
 76
0
330
1B
  0
LAYOUT
  5
22
100
AcDbPlotSettings
  1

  2
C:\Program Files\AutoCAD 2002\plotters\DWF ePlot (optimized for plotting).pc3
  4

  6

 40
0.0
 41
0.0
 42
0.0
 43
0.0
 44
0.0
 45
0.0
 46
0.0
 47
0.0
 48
0.0
 49
0.0
140
0.0
141
0.0
142
1.0
143
1.0
 70
1712
 72
0
 73
0
 74
0
  7

 75
0
147
1.0
148
0.0
149
0.0
100
AcDbLayout
  1
Model
 70
1
 71
0
 10
0.0
 20
0.0
 11
12.0
 21
9.0
 12
0.0
 22
0.0
 32
0.0
 14
0.0
 24
0.0
 34
0.0
 15
0.0
 25
0.0
 35
0.0
146
0.0
 13
0.0
 23
0.0
 33
0.0
 16
1.0
 26
0.0
 36
0.0
 17
0.0
 27
1.0
 37
0.0
 76
0
330
1F
  0
LAYOUT
  5
26
100
AcDbPlotSettings
  1

  2
C:\Program Files\AutoCAD 2002\plotters\DWF ePlot (optimized for plotting).pc3
  4

  6

 40
0.0
 41
0.0
 42
0.0
 43
0.0
 44
0.0
 45
0.0
 46
0.0
 47
0.0
 48
0.0
 49
0.0
140
0.0
141
0.0
142
1.0
143
1.0
 70
688
 72
0
 73
0
 74
5
  7

 75
16
147
1.0
148
0.0
149
0.0
100
AcDbLayout
  1
Layout2
 70
1
 71
2
 10
0.0
 20
0.0
 11
12.0
 21
9.0
 12
0.0
 22
0.0
 32
0.0
 14
0.0
 24
0.0
 34
0.0
 15
0.0
 25
0.0
 35
0.0
146
0.0
 13
0.0
 23
0.0
 33
0.0
 16
1.0
 26
0.0
 36
0.0
 17
0.0
 27
1.0
 37
0.0
 76
0
330
23
  0
DICTIONARY
  5
79
100
AcDbDictionary
281
1
  3
DIMASSOC
350
7B
  3
HIDETEXT
350
7A
  0
DICTIONARYVAR
  5
7A
100
DictionaryVariables
280
0
  1
2
  0
DICTIONARYVAR
  5
7B
100
DictionaryVariables
280
0
  1
1
  0
ENDSEC
  0
EOF
