999
dxflib 2.0.4.8
  0
SECTION
  2
HEADER
  9
$ACADVER
  1
AC1015
  9
$HANDSEED
  5
FFFF
  9
$DIMASZ
 40
2.5
  9
$DIMGAP
 40
0.625
  9
$DIMEXO
 40
0.625
  9
$INSUNITS
 70
4
  9
$DIMTXT
 40
2.5
  9
$PLIMMAX
 10
210.0
 20
297.0
  9
$PLIMMIN
 10
0.0
 20
0.0
  9
$DIMEXE
 40
1.25
  0
ENDSEC
  0
SECTION
  2
TABLES
  0
TABLE
  2
VPORT
  5
8
100
AcDbSymbolTable
 70
1
  0
VPORT
  5
30
100
AcDbSymbolTableRecord
100
AcDbViewportTableRecord
  2
*Active
 70
0
 10
0.0
 20
0.0
 11
1.0
 21
1.0
 12
286.3055555555554861
 22
148.5
 13
0.0
 23
0.0
 14
10.0
 24
10.0
 15
10.0
 25
10.0
 16
0.0
 26
0.0
 36
1.0
 17
0.0
 27
0.0
 37
0.0
 40
297.0
 41
1.92798353909465
 42
50.0
 43
0.0
 44
0.0
 50
0.0
 51
0.0
 71
0
 72
100
 73
1
 74
3
 75
1
 76
1
 77
0
 78
0
281
0
 65
1
110
0.0
120
0.0
130
0.0
111
1.0
121
0.0
131
0.0
112
0.0
122
1.0
132
0.0
 79
0
146
0.0
  0
ENDTAB
  0
TABLE
  2
LTYPE
  5
5
100
AcDbSymbolTable
 70
21
  0
LTYPE
  5
14
100
AcDbSymbolTableRecord
100
AcDbLinetypeTableRecord
  2
ByBlock
 70
0
  3

 72
65
 73
0
 40
0.0
  0
LTYPE
  5
15
100
AcDbSymbolTableRecord
100
AcDbLinetypeTableRecord
  2
ByLayer
 70
0
  3

 72
65
 73
0
 40
0.0
  0
LTYPE
  5
16
100
AcDbSymbolTableRecord
100
AcDbLinetypeTableRecord
  2
CONTINUOUS
 70
0
  3
Solid line
 72
65
 73
0
 40
0.0
  0
LTYPE
  5
31
100
AcDbSymbolTableRecord
100
AcDbLinetypeTableRecord
  2
DOT
 70
0
  3
Dot . . . . . . . . . . . . . . . . . . . . . .
 72
65
 73
2
 40
6.3499999999999996
 49
0.0
 74
0
 49
-6.3499999999999996
 74
0
  0
LTYPE
  5
32
100
AcDbSymbolTableRecord
100
AcDbLinetypeTableRecord
  2
DOT2
 70
0
  3
Dot (.5x) .....................................
 72
65
 73
2
 40
3.1749999999999998
 49
0.0
 74
0
 49
-3.1749999999999998
 74
0
  0
LTYPE
  5
33
100
AcDbSymbolTableRecord
100
AcDbLinetypeTableRecord
  2
DOTX2
 70
0
  3
Dot (2x) .  .  .  .  .  .  .  .  .  .  .  .  .
 72
65
 73
2
 40
12.6999999999999993
 49
0.0
 74
0
 49
-12.6999999999999993
 74
0
  0
LTYPE
  5
34
100
AcDbSymbolTableRecord
100
AcDbLinetypeTableRecord
  2
DASHED
 70
0
  3
Dashed __ __ __ __ __ __ __ __ __ __ __ __ __ _
 72
65
 73
2
 40
19.0500000000000007
 49
12.6999999999999993
 74
0
 49
-6.3499999999999996
 74
0
  0
LTYPE
  5
35
100
AcDbSymbolTableRecord
100
AcDbLinetypeTableRecord
  2
DASHED2
 70
0
  3
Dashed (.5x) _ _ _ _ _ _ _ _ _ _ _ _ _ _ _ _ _
 72
65
 73
2
 40
9.5250000000000004
 49
6.3499999999999996
 74
0
 49
-3.1749999999999998
 74
0
  0
LTYPE
  5
36
100
AcDbSymbolTableRecord
100
AcDbLinetypeTableRecord
  2
DASHEDX2
 70
0
  3
Dashed (2x) ____  ____  ____  ____  ____  ___
 72
65
 73
2
 40
38.1000000000000014
 49
25.3999999999999986
 74
0
 49
-12.6999999999999993
 74
0
  0
LTYPE
  5
37
100
AcDbSymbolTableRecord
100
AcDbLinetypeTableRecord
  2
DASHDOT
 70
0
  3
Dash dot __ . __ . __ . __ . __ . __ . __ . __
 72
65
 73
4
 40
25.3999999999999986
 49
12.6999999999999993
 74
0
 49
-6.3499999999999996
 74
0
 49
0.0
 74
0
 49
-6.3499999999999996
 74
0
  0
LTYPE
  5
38
100
AcDbSymbolTableRecord
100
AcDbLinetypeTableRecord
  2
DASHDOT2
 70
0
  3
Dash dot (.5x) _._._._._._._._._._._._._._._.
 72
65
 73
4
 40
12.6999999999999993
 49
6.3499999999999996
 74
0
 49
-3.1749999999999998
 74
0
 49
0.0
 74
0
 49
-3.1749999999999998
 74
0
  0
LTYPE
  5
39
100
AcDbSymbolTableRecord
100
AcDbLinetypeTableRecord
  2
DASHDOTX2
 70
0
  3
Dash dot (2x) ____  .  ____  .  ____  .  ___
 72
65
 73
4
 40
50.7999999999999972
 49
25.3999999999999986
 74
0
 49
-12.6999999999999993
 74
0
 49
0.0
 74
0
 49
-12.6999999999999993
 74
0
  0
LTYPE
  5
3A
100
AcDbSymbolTableRecord
100
AcDbLinetypeTableRecord
  2
DIVIDE
 70
0
  3
Divide ____ . . ____ . . ____ . . ____ . . ____
 72
65
 73
6
 40
31.75
 49
12.6999999999999993
 74
0
 49
-6.3499999999999996
 74
0
 49
0.0
 74
0
 49
-6.3499999999999996
 74
0
 49
0.0
 74
0
 49
-6.3499999999999996
 74
0
  0
LTYPE
  5
3B
100
AcDbSymbolTableRecord
100
AcDbLinetypeTableRecord
  2
DIVIDE2
 70
0
  3
Divide (.5x) __..__..__..__..__..__..__..__.._
 72
65
 73
6
 40
15.875
 49
6.3499999999999996
 74
0
 49
-3.1749999999999998
 74
0
 49
0.0
 74
0
 49
-3.1749999999999998
 74
0
 49
0.0
 74
0
 49
-3.1749999999999998
 74
0
  0
LTYPE
  5
3C
100
AcDbSymbolTableRecord
100
AcDbLinetypeTableRecord
  2
DIVIDEX2
 70
0
  3
Divide (2x) ________  .  .  ________  .  .  _
 72
65
 73
6
 40
63.5
 49
25.3999999999999986
 74
0
 49
-12.6999999999999993
 74
0
 49
0.0
 74
0
 49
-12.6999999999999993
 74
0
 49
0.0
 74
0
 49
-12.6999999999999993
 74
0
  0
LTYPE
  5
3D
100
AcDbSymbolTableRecord
100
AcDbLinetypeTableRecord
  2
CENTER
 70
0
  3
Center ____ _ ____ _ ____ _ ____ _ ____ _ ____
 72
65
 73
4
 40
50.7999999999999972
 49
31.75
 74
0
 49
-6.3499999999999996
 74
0
 49
6.3499999999999996
 74
0
 49
-6.3499999999999996
 74
0
  0
LTYPE
  5
3E
100
AcDbSymbolTableRecord
100
AcDbLinetypeTableRecord
  2
CENTER2
 70
0
  3
Center (.5x) ___ _ ___ _ ___ _ ___ _ ___ _ ___
 72
65
 73
4
 40
28.5749999999999993
 49
19.0500000000000007
 74
0
 49
-3.1749999999999998
 74
0
 49
3.1749999999999998
 74
0
 49
-3.1749999999999998
 74
0
  0
LTYPE
  5
3F
100
AcDbSymbolTableRecord
100
AcDbLinetypeTableRecord
  2
CENTERX2
 70
0
  3
Center (2x) ________  __  ________  __  _____
 72
65
 73
4
 40
101.5999999999999943
 49
63.5
 74
0
 49
-12.6999999999999993
 74
0
 49
12.6999999999999993
 74
0
 49
-12.6999999999999993
 74
0
  0
LTYPE
  5
40
100
AcDbSymbolTableRecord
100
AcDbLinetypeTableRecord
  2
BORDER
 70
0
  3
Border __ __ . __ __ . __ __ . __ __ . __ __ .
 72
65
 73
6
 40
44.4500000000000028
 49
12.6999999999999993
 74
0
 49
-6.3499999999999996
 74
0
 49
12.6999999999999993
 74
0
 49
-6.3499999999999996
 74
0
 49
0.0
 74
0
 49
-6.3499999999999996
 74
0
  0
LTYPE
  5
41
100
AcDbSymbolTableRecord
100
AcDbLinetypeTableRecord
  2
BORDER2
 70
0
  3
Border (.5x) __.__.__.__.__.__.__.__.__.__.__.
 72
65
 73
6
 40
22.2250000000000014
 49
6.3499999999999996
 74
0
 49
-3.1749999999999998
 74
0
 49
6.3499999999999996
 74
0
 49
-3.1749999999999998
 74
0
 49
0.0
 74
0
 49
-3.1749999999999998
 74
0
  0
LTYPE
  5
42
100
AcDbSymbolTableRecord
100
AcDbLinetypeTableRecord
  2
BORDERX2
 70
0
  3
Border (2x) ____  ____  .  ____  ____  .  ___
 72
65
 73
6
 40
88.9000000000000057
 49
25.3999999999999986
 74
0
 49
-12.6999999999999993
 74
0
 49
25.3999999999999986
 74
0
 49
-12.6999999999999993
 74
0
 49
0.0
 74
0
 49
-12.6999999999999993
 74
0
  0
ENDTAB
  0
TABLE
  2
LAYER
  5
2
100
AcDbSymbolTable
 70
1
  0
LAYER
  5
10
100
AcDbSymbolTableRecord
100
AcDbLayerTableRecord
  2
0
 70
0
 62
7
  6
CONTINUOUS
370
0
390
F
  0
ENDTAB
  0
TABLE
  2
STYLE
  5
3
100
AcDbSymbolTable
 70
1
  0
STYLE
  5
11
100
AcDbSymbolTableRecord
100
AcDbTextStyleTableRecord
  2
Standard
 70
0
 40
0.0
 41
0.75
 50
0.0
 71
0
 42
2.5
  3
txt
  4

  0
ENDTAB
  0
TABLE
  2
VIEW
  5
6
100
AcDbSymbolTable
 70
0
  0
ENDTAB
  0
TABLE
  2
UCS
  5
7
100
AcDbSymbolTable
 70
0
  0
ENDTAB
  0
TABLE
  2
APPID
  5
9
100
AcDbSymbolTable
 70
1
  0
APPID
  5
12
100
AcDbSymbolTableRecord
100
AcDbRegAppTableRecord
  2
ACAD
 70
0
  0
ENDTAB
  0
TABLE
  2
DIMSTYLE
  5
A
100
AcDbSymbolTable
 70
1
100
AcDbDimStyleTable
 71
0
  0
DIMSTYLE
105
27
100
AcDbSymbolTableRecord
100
AcDbDimStyleTableRecord
  2
Standard
 41
2.5
 42
0.625
 43
3.75
 44
1.25
 70
0
 73
0
 74
0
 77
1
 78
8
140
2.5
141
2.5
143
0.03937007874016
147
0.625
171
3
172
1
271
2
272
2
274
3
278
44
283
0
284
8
340
11
  0
ENDTAB
  0
TABLE
  2
BLOCK_RECORD
  5
1
100
AcDbSymbolTable
 70
1
  0
BLOCK_RECORD
  5
1F
100
AcDbSymbolTableRecord
100
AcDbBlockTableRecord
  2
*Model_Space
340
22
  0
BLOCK_RECORD
  5
1B
100
AcDbSymbolTableRecord
100
AcDbBlockTableRecord
  2
*Paper_Space
340
1E
  0
BLOCK_RECORD
  5
23
100
AcDbSymbolTableRecord
100
AcDbBlockTableRecord
  2
*Paper_Space0
340
26
  0
ENDTAB
  0
ENDSEC
  0
SECTION
  2
BLOCKS
  0
BLOCK
  5
20
100
AcDbEntity
  8
0
100
AcDbBlockBegin
  2
*Model_Space
 70
0
 10
0.0
 20
0.0
 30
0.0
  3
*Model_Space
  1

  0
ENDBLK
  5
21
100
AcDbEntity
  8
0
100
AcDbBlockEnd
  0
BLOCK
  5
1C
100
AcDbEntity
 67
1
  8
0
100
AcDbBlockBegin
  2
*Paper_Space
 70
0
 10
0.0
 20
0.0
 30
0.0
  3
*Paper_Space
  1

  0
ENDBLK
  5
1D
100
AcDbEntity
 67
1
  8
0
100
AcDbBlockEnd
  0
BLOCK
  5
24
100
AcDbEntity
  8
0
100
AcDbBlockBegin
  2
*Paper_Space0
 70
0
 10
0.0
 20
0.0
 30
0.0
  3
*Paper_Space0
  1

  0
ENDBLK
  5
25
100
AcDbEntity
  8
0
100
AcDbBlockEnd
  0
ENDSEC
  0
SECTION
  2
ENTITIES
  0
LINE
  5
43
100
AcDbEntity
100
AcDbLine
  8
0
 62
256
370
40
  6
ByLayer
 10
24.609375
 20
-15.234375
 30
0.0
 11
24.609375
 21
-15.234375
 31
0.0
  0
LINE
  5
44
100
AcDbEntity
100
AcDbLine
  8
0
 62
256
370
40
  6
ByLayer
 10
37.5
 20
64.0625
 30
0.0
 11
37.5
 21
64.0625
 31
0.0
  0
LINE
  5
45
100
AcDbEntity
100
AcDbLine
  8
0
 62
256
370
40
  6
ByLayer
 10
37.109375
 20
64.84375
 30
0.0
 11
37.109375
 21
64.84375
 31
0.0
  0
LINE
  5
46
100
AcDbEntity
100
AcDbLine
  8
0
 62
256
370
40
  6
ByLayer
 10
37.109375
 20
64.84375
 30
0.0
 11
37.109375
 21
64.84375
 31
0.0
  0
LINE
  5
47
100
AcDbEntity
100
AcDbLine
  8
0
 62
256
370
40
  6
ByLayer
 10
24.21875
 20
-14.0625
 30
0.0
 11
23.0400000000000063
 21
62.0800000000000196
 31
0.0
  0
LINE
  5
48
100
AcDbEntity
100
AcDbLine
  8
0
 62
256
370
40
  6
ByLayer
 10
24.0625000000000071
 20
-14.0625000000000071
 30
0.0
 11
70.2260071662834662
 21
70.1096310392954223
 31
0.0
  0
LEADER
  5
49
  8
0
 62
256
370
40
  6
ByLayer
100
AcDbEntity
100
AcDbLeader
  3
Standard
 71
1
 72
0
 73
3
 74
0
 75
0
 40
1.0
 41
10.0
 76
2
 10
23.1014400000002347
 20
62.0953600000006318
 10
31.2934400000003201
 20
63.6518400000006466
  0
LEADER
  5
4A
  8
0
 62
256
370
40
  6
ByLayer
100
AcDbEntity
100
AcDbLeader
  3
Standard
 71
1
 72
0
 73
3
 74
0
 75
0
 40
1.0
 41
10.0
 76
3
 10
0.0
 20
0.0
 10
7.9462400000000812
 20
7.8643200000000801
 10
7.9462400000000812
 20
7.9462400000000812
  0
LEADER
  5
4B
  8
0
 62
256
370
40
  6
ByLayer
100
AcDbEntity
100
AcDbLeader
  3
Standard
 71
1
 72
0
 73
3
 74
0
 75
0
 40
1.0
 41
10.0
 76
2
 10
24.3302400000002486
 20
-13.7625600000001409
 10
24.0025600000002441
 20
-2.6214400000000269
  0
LEADER
  5
4C
  8
0
 62
256
370
40
  6
ByLayer
100
AcDbEntity
100
AcDbLeader
  3
Standard
 71
1
 72
0
 73
3
 74
0
 75
0
 40
1.0
 41
10.0
 76
2
 10
24.1664000000002446
 20
-14.0083200000001433
 10
30.8838400000003155
 20
-1.7203200000000176
  0
LINE
  5
4D
100
AcDbEntity
100
AcDbLine
  8
0
 62
256
370
40
  6
ByLayer
 10
106.25
 20
76.75
 30
0.0
 11
23.0267289600002165
 21
62.1176422400005848
 31
0.0
  0
LINE
  5
4E
100
AcDbEntity
100
AcDbLine
  8
0
 62
256
370
40
  6
ByLayer
 10
106.25
 20
106.25
 30
0.0
 11
106.1326684160012519
 21
76.7725404160009077
 31
0.0
  0
LEADER
  5
4F
  8
0
 62
256
370
40
  6
ByLayer
100
AcDbEntity
100
AcDbLeader
  3
Standard
 71
1
 72
0
 73
3
 74
0
 75
0
 40
1.0
 41
10.0
 76
2
 10
106.0991139840012494
 20
76.7725404160009077
 10
99.9922073600011743
 20
75.6987985920008981
  0
LEADER
  5
50
  8
0
 62
256
370
40
  6
ByLayer
100
AcDbEntity
100
AcDbLeader
  3
Standard
 71
1
 72
0
 73
3
 74
0
 75
0
 40
1.0
 41
10.0
 76
2
 10
106.1997772800012569
 20
106.1662228480012544
 10
106.1662228480012544
 20
99.5224453120011816
  0
LEADER
  5
51
  8
0
 62
256
370
40
  6
ByLayer
100
AcDbEntity
100
AcDbLeader
  3
Standard
 71
1
 72
0
 73
3
 74
0
 75
0
 40
1.0
 41
10.0
 76
2
 10
105.8306785280012434
 20
105.9648962560012535
 10
101.1330580480011889
 20
101.1330580480011889
  0
MTEXT
  5
52
100
AcDbEntity
100
AcDbMText
  8
0
 62
256
370
40
  6
ByLayer
 10
77.1484375000011227
 20
90.3320312500013074
 30
0.0
 40
12.0
 41
100.0
 71
5
 72
0
  1
M
  7
normal
 50
0.0
 73
1
 44
1.0
  0
MTEXT
  5
53
100
AcDbEntity
100
AcDbMText
  8
0
 62
256
370
40
  6
ByLayer
 10
89.3554687500012932
 20
64.4531250000009379
 30
0.0
 40
12.0
 41
100.0
 71
5
 72
0
  1
M
  7
normal
 50
0.0
 73
1
 44
1.0
  0
MTEXT
  5
54
100
AcDbEntity
100
AcDbMText
  8
0
 62
256
370
40
  6
ByLayer
 10
54.1992187500007887
 20
25.3906250000003695
 30
0.0
 40
12.0
 41
100.0
 71
5
 72
0
  1
m
  7
symbol
 50
0.0
 73
1
 44
1.0
  0
MTEXT
  5
55
100
AcDbEntity
100
AcDbMText
  8
0
 62
256
370
40
  6
ByLayer
 10
14.6484375000002132
 20
37.10937500000054
 30
0.0
 40
12.0
 41
100.0
 71
5
 72
0
  1
m
  7
symbol
 50
0.0
 73
1
 44
1.0
  0
MTEXT
  5
56
100
AcDbEntity
100
AcDbMText
  8
0
 62
256
370
40
  6
ByLayer
 10
42.9687500000006253
 20
78.6132812500011369
 30
0.0
 40
12.0
 41
100.0
 71
5
 72
0
  1
m
  7
symbol
 50
0.0
 73
1
 44
1.0
  0
MTEXT
  5
57
100
AcDbEntity
100
AcDbMText
  8
0
 62
256
370
40
  6
ByLayer
 10
84.4726562500012221
 20
87.4023437500012648
 30
0.0
 40
8.0
 41
100.0
 71
5
 72
0
  1
J
  7
normal
 50
0.0
 73
1
 44
1.0
  0
MTEXT
  5
58
100
AcDbEntity
100
AcDbMText
  8
0
 62
256
370
40
  6
ByLayer
 10
59.5703125000008669
 20
18.0664062500002629
 30
0.0
 40
8.0
 41
100.0
 71
5
 72
0
  1
J
  7
normal
 50
0.0
 73
1
 44
1.0
  0
MTEXT
  5
59
100
AcDbEntity
100
AcDbMText
  8
0
 62
256
370
40
  6
ByLayer
 10
20.9960937500003055
 20
29.7851562500004334
 30
0.0
 40
8.0
 41
100.0
 71
5
 72
0
  1
S
  7
normal
 50
0.0
 73
1
 44
1.0
  0
MTEXT
  5
5A
100
AcDbEntity
100
AcDbMText
  8
0
 62
256
370
40
  6
ByLayer
 10
98.1445312500014211
 20
59.0820312500008598
 30
0.0
 40
8.0
 41
100.0
 71
5
 72
0
  1
L
  7
normal
 50
0.0
 73
1
 44
1.0
  0
MTEXT
  5
5B
100
AcDbEntity
100
AcDbMText
  8
0
 62
256
370
40
  6
ByLayer
 10
50.781250000000739
 20
74.21875000000108
 30
0.0
 40
8.0
 41
100.0
 71
5
 72
0
  1
L
  7
normal
 50
0.0
 73
1
 44
1.0
  0
LINE
  5
5C
100
AcDbEntity
100
AcDbLine
  8
0
 62
256
370
40
  6
ByLayer
 10
39.0000000000005826
 20
83.400000000001242
 30
0.0
 11
44.0000000000005826
 21
83.400000000001242
 31
0.0
  0
LINE
  5
5D
100
AcDbEntity
100
AcDbLine
  8
0
 62
256
370
40
  6
ByLayer
 10
73.8000000000011056
 20
98.6000000000014722
 30
0.0
 11
78.8000000000011056
 21
98.6000000000014722
 31
0.0
  0
LINE
  5
5E
100
AcDbEntity
100
AcDbLine
  8
0
 62
256
370
40
  6
ByLayer
 10
12.0000000000001794
 20
42.8000000000006366
 30
0.0
 11
17.0000000000001776
 21
42.8000000000006366
 31
0.0
  0
LINE
  5
5F
100
AcDbEntity
100
AcDbLine
  8
0
 62
256
370
40
  6
ByLayer
 10
51.6000000000007688
 20
30.4000000000004533
 30
0.0
 11
56.6000000000007688
 21
30.4000000000004533
 31
0.0
  0
LINE
  5
60
100
AcDbEntity
100
AcDbLine
  8
0
 62
256
370
40
  6
ByLayer
 10
85.4000000000012705
 20
72.2000000000010829
 30
0.0
 11
90.4000000000012705
 21
72.2000000000010829
 31
0.0
  0
ELLIPSE
  5
61
100
AcDbEntity
100
AcDbEllipse
  8
0
 62
256
370
40
  6
ByLayer
 10
100.0000000000016342
 20
92.5781250000015064
 30
0.0
 11
-14.4531250000002274
 21
14.0625000000002132
 31
0.0
 40
0.5069418386491559
 41
3.3371695024664851
 42
2.585615517306223
  0
MTEXT
  5
62
100
AcDbEntity
100
AcDbMText
  8
0
 62
256
370
40
  6
ByLayer
 10
122.8125000000022027
 20
88.7500000000015916
 30
0.0
 40
12.0
 41
100.0
 71
5
 72
0
  1
M
  7
normal
 50
0.0
 73
1
 44
1.0
  0
MTEXT
  5
63
100
AcDbEntity
100
AcDbMText
  8
0
 62
256
370
40
  6
ByLayer
 10
130.937500000002359
 20
84.3750000000015206
 30
0.0
 40
8.0
 41
100.0
 71
5
 72
0
  1
S
  7
normal
 50
0.0
 73
1
 44
1.0
  0
ELLIPSE
  5
64
100
AcDbEntity
100
AcDbEllipse
  8
0
 62
256
370
40
  6
ByLayer
 10
39.0625000000007816
 20
46.2500000000009237
 30
0.0
 11
-6.562500000000135
 21
18.4375000000003695
 31
0.0
 40
0.4704232534421214
 41
6.1628290536220689
 42
5.5328841716192736
  0
LINE
  5
65
100
AcDbEntity
100
AcDbLine
  8
0
 62
256
370
40
  6
ByLayer
 10
121.2800000000021896
 20
96.1600000000017303
 30
0.0
 11
126.2800000000021896
 21
96.1600000000017303
 31
0.0
  0
SPLINE
  5
66
  8
0
 62
256
370
40
  6
ByLayer
100
AcDbEntity
100
AcDbSpline
 70
8
 71
3
 72
10
 73
6
 74
0
 40
0.0
 40
0.0
 40
0.0
 40
0.0
 40
0.3333333333333333
 40
0.6666666666666666
 40
1.0
 40
1.0
 40
1.0
 40
1.0
 10
33.4792700723207375
 20
64.8969558425614252
 30
0.0
 10
34.8751344435207642
 20
65.4123519180814412
 30
0.0
 10
37.1712000000007592
 20
62.7712000000012793
 30
0.0
 10
37.2736000000007621
 20
60.4160000000012332
 30
0.0
 10
36.8640000000007504
 20
58.9824000000011992
 30
0.0
 10
36.147200000000737
 20
57.8560000000011811
 30
0.0
  0
LEADER
  5
67
  8
0
 62
256
370
40
  6
ByLayer
100
AcDbEntity
100
AcDbLeader
  3
Standard
 71
1
 72
0
 73
3
 74
0
 75
0
 40
1.0
 41
10.0
 76
2
 10
35.6515840000008453
 20
57.042534400001351
 10
36.5323878400008653
 20
58.5524838400013863
  0
SPLINE
  5
68
  8
0
 62
256
370
40
  6
ByLayer
100
AcDbEntity
100
AcDbSpline
 70
8
 71
3
 72
10
 73
6
 74
0
 40
0.0
 40
0.0
 40
0.0
 40
0.0
 40
0.3333333333333333
 40
0.6666666666666666
 40
1.0
 40
1.0
 40
1.0
 40
1.0
 10
115.6096000000028994
 20
80.3840000000020183
 30
0.0
 10
114.58560000000287
 20
78.5408000000019655
 30
0.0
 10
111.3088000000027904
 20
78.2336000000019709
 30
0.0
 10
108.4416000000027225
 20
80.1792000000020124
 30
0.0
 10
107.5200000000026961
 20
82.8416000000020745
 30
0.0
 10
107.5200000000026961
 20
85.094400000002139
 30
0.0
  0
LEADER
  5
69
  8
0
 62
256
370
40
  6
ByLayer
100
AcDbEntity
100
AcDbLeader
  3
Standard
 71
1
 72
0
 73
3
 74
0
 75
0
 40
1.0
 41
10.0
 76
3
 10
107.3152000000026902
 20
88.6784000000022274
 10
107.6352000000026834
 20
83.878400000002145
 10
107.6352000000026834
 20
83.878400000002145
  0
ARC
  5
6A
100
AcDbEntity
  8
0
 62
256
370
40
  6
ByLayer
100
AcDbCircle
 10
70.5331200000018157
 20
70.5331200000018157
 30
0.0
 40
10.6006505822994548
100
AcDbArc
 50
9.4623222080256131
 51
45.6437457141753953
  0
ARC
  5
6B
100
AcDbEntity
  8
0
 62
256
370
40
  6
ByLayer
100
AcDbCircle
 10
0.0
 20
0.0
 30
0.0
 40
0.0
100
AcDbArc
 50
0.0
 51
0.0
  0
ARC
  5
6C
100
AcDbEntity
  8
0
 62
256
370
40
  6
ByLayer
100
AcDbCircle
 10
70.2873600000018115
 20
70.451200000001819
 30
0.0
 40
10.8295637366611466
100
AcDbArc
 50
190.5391837286282737
 51
224.6649407813908965
  0
ARC
  5
6D
100
AcDbEntity
  8
0
 62
256
370
40
  6
ByLayer
100
AcDbCircle
 10
23.5200000000006462
 20
23.5200000000006462
 30
0.0
 40
12.0010666192638027
100
AcDbArc
 50
45.0
 51
90.0
  0
ARC
  5
6E
100
AcDbEntity
  8
0
 62
256
370
40
  6
ByLayer
100
AcDbCircle
 10
23.5200000000006462
 20
23.3600000000006389
 30
0.0
 40
12.2188051789038763
100
AcDbArc
 50
226.0809241866606669
 51
271.5693548047489685
  0
MTEXT
  5
6F
100
AcDbEntity
100
AcDbMText
  8
0
 62
256
370
40
  6
ByLayer
 10
84.2000000000023761
 20
80.0000000000022595
 30
0.0
 40
8.0
 41
100.0
 71
5
 72
0
  1
a
  7
symbol
 50
0.0
 73
1
 44
1.0
  0
MTEXT
  5
70
100
AcDbEntity
100
AcDbMText
  8
0
 62
256
370
40
  6
ByLayer
 10
56.6000000000016001
 20
66.4000000000018815
 30
0.0
 40
8.0
 41
100.0
 71
5
 72
0
  1
a
  7
symbol
 50
0.0
 73
1
 44
1.0
  0
MTEXT
  5
71
100
AcDbEntity
100
AcDbMText
  8
0
 62
256
370
40
  6
ByLayer
 10
27.6000000000007795
 20
41.200000000001161
 30
0.0
 40
8.0
 41
100.0
 71
5
 72
0
  1
b
  7
symbol
 50
0.0
 73
1
 44
1.0
  0
MTEXT
  5
72
100
AcDbEntity
100
AcDbMText
  8
0
 62
256
370
40
  6
ByLayer
 10
15.8000000000004466
 20
8.8000000000002494
 30
0.0
 40
8.0
 41
100.0
 71
5
 72
0
  1
b
  7
symbol
 50
0.0
 73
1
 44
1.0
  0
LINE
  5
73
100
AcDbEntity
100
AcDbLine
  8
0
 62
256
370
40
  6
ByLayer
 10
4.8640000000001713
 20
5.1200000000001795
 30
0.0
 11
106.0660171779821326
 21
106.0660171779821184
 31
0.0
  0
LINE
  5
74
100
AcDbEntity
100
AcDbLine
  8
0
 62
256
370
40
  6
ByLayer
 10
4.8640000000001713
 20
5.1200000000001795
 30
0.0
 11
24.1591910400002767
 21
-14.3025766400001633
 31
0.0
  0
LEADER
  5
75
  8
0
 62
256
370
70
  6
ByLayer
100
AcDbEntity
100
AcDbLeader
  3
Standard
 71
1
 72
0
 73
3
 74
0
 75
0
 40
1.0
 41
10.0
 76
2
 10
4.7360000000001667
 20
4.992000000000175
 10
70.272000000002464
 20
70.5280000000024785
  0
ENDSEC
  0
SECTION
  2
OBJECTS
  0
DICTIONARY
  5
C
100
AcDbDictionary
280
0
281
1
  3
ACAD_GROUP
350
D
  3
ACAD_LAYOUT
350
1A
  3
ACAD_MLINESTYLE
350
17
  3
ACAD_PLOTSETTINGS
350
19
  3
ACAD_PLOTSTYLENAME
350
E
  3
AcDbVariableDictionary
350
76
  0
DICTIONARY
  5
D
100
AcDbDictionary
280
0
281
1
  0
ACDBDICTIONARYWDFLT
  5
E
100
AcDbDictionary
281
1
  3
Normal
350
F
100
AcDbDictionaryWithDefault
340
F
  0
ACDBPLACEHOLDER
  5
F
  0
DICTIONARY
  5
17
100
AcDbDictionary
280
0
281
1
  3
Standard
350
18
  0
MLINESTYLE
  5
18
100
AcDbMlineStyle
  2
STANDARD
 70
0
  3

 62
256
 51
90.0
 52
90.0
 71
2
 49
0.5
 62
256
  6
BYLAYER
 49
-0.5
 62
256
  6
BYLAYER
  0
DICTIONARY
  5
19
100
AcDbDictionary
280
0
281
1
  0
DICTIONARY
  5
1A
100
AcDbDictionary
281
1
  3
Layout1
350
1E
  3
Layout2
350
26
  3
Model
350
22
  0
LAYOUT
  5
1E
100
AcDbPlotSettings
  1

  2
C:\Program Files\AutoCAD 2002\plotters\DWF ePlot (optimized for plotting).pc3
  4

  6

 40
0.0
 41
0.0
 42
0.0
 43
0.0
 44
0.0
 45
0.0
 46
0.0
 47
0.0
 48
0.0
 49
0.0
140
0.0
141
0.0
142
1.0
143
1.0
 70
688
 72
0
 73
0
 74
5
  7

 75
16
147
1.0
148
0.0
149
0.0
100
AcDbLayout
  1
Layout1
 70
1
 71
1
 10
0.0
 20
0.0
 11
420.0
 21
297.0
 12
0.0
 22
0.0
 32
0.0
 14
100000000000000000000.0
 24
100000000000000000000.0
 34
100000000000000000000.0
 15
-100000000000000000000.0
 25
-100000000000000000000.0
 35
-100000000000000000000.0
146
0.0
 13
0.0
 23
0.0
 33
0.0
 16
1.0
 26
0.0
 36
0.0
 17
0.0
 27
1.0
 37
0.0
 76
0
330
1B
  0
LAYOUT
  5
22
100
AcDbPlotSettings
  1

  2
C:\Program Files\AutoCAD 2002\plotters\DWF ePlot (optimized for plotting).pc3
  4

  6

 40
0.0
 41
0.0
 42
0.0
 43
0.0
 44
0.0
 45
0.0
 46
0.0
 47
0.0
 48
0.0
 49
0.0
140
0.0
141
0.0
142
1.0
143
1.0
 70
1712
 72
0
 73
0
 74
0
  7

 75
0
147
1.0
148
0.0
149
0.0
100
AcDbLayout
  1
Model
 70
1
 71
0
 10
0.0
 20
0.0
 11
12.0
 21
9.0
 12
0.0
 22
0.0
 32
0.0
 14
0.0
 24
0.0
 34
0.0
 15
0.0
 25
0.0
 35
0.0
146
0.0
 13
0.0
 23
0.0
 33
0.0
 16
1.0
 26
0.0
 36
0.0
 17
0.0
 27
1.0
 37
0.0
 76
0
330
1F
  0
LAYOUT
  5
26
100
AcDbPlotSettings
  1

  2
C:\Program Files\AutoCAD 2002\plotters\DWF ePlot (optimized for plotting).pc3
  4

  6

 40
0.0
 41
0.0
 42
0.0
 43
0.0
 44
0.0
 45
0.0
 46
0.0
 47
0.0
 48
0.0
 49
0.0
140
0.0
141
0.0
142
1.0
143
1.0
 70
688
 72
0
 73
0
 74
5
  7

 75
16
147
1.0
148
0.0
149
0.0
100
AcDbLayout
  1
Layout2
 70
1
 71
2
 10
0.0
 20
0.0
 11
12.0
 21
9.0
 12
0.0
 22
0.0
 32
0.0
 14
0.0
 24
0.0
 34
0.0
 15
0.0
 25
0.0
 35
0.0
146
0.0
 13
0.0
 23
0.0
 33
0.0
 16
1.0
 26
0.0
 36
0.0
 17
0.0
 27
1.0
 37
0.0
 76
0
330
23
  0
DICTIONARY
  5
76
100
AcDbDictionary
281
1
  3
DIMASSOC
350
78
  3
HIDETEXT
350
77
  0
DICTIONARYVAR
  5
77
100
DictionaryVariables
280
0
  1
2
  0
DICTIONARYVAR
  5
78
100
DictionaryVariables
280
0
  1
1
  0
ENDSEC
  0
EOF
