999
dxflib 2.0.4.8
  0
SECTION
  2
HEADER
  9
$ACADVER
  1
AC1015
  9
$HANDSEED
  5
FFFF
  9
$DIMASZ
 40
2.5
  9
$DIMGAP
 40
0.625
  9
$INSUNITS
 70
4
  9
$DIMEXO
 40
0.625
  9
$DIMTXT
 40
2.5
  9
$DIMSTYLE
  2
Standard
  9
$PLIMMIN
 10
0.0
 20
0.0
  9
$PLIMMAX
 10
210.0
 20
297.0
  9
$DIMEXE
 40
1.25
  0
ENDSEC
  0
SECTION
  2
TABLES
  0
TABLE
  2
VPORT
  5
8
100
AcDbSymbolTable
 70
1
  0
VPORT
  5
30
100
AcDbSymbolTableRecord
100
AcDbViewportTableRecord
  2
*Active
 70
0
 10
0.0
 20
0.0
 11
1.0
 21
1.0
 12
286.3055555555554861
 22
148.5
 13
0.0
 23
0.0
 14
10.0
 24
10.0
 15
10.0
 25
10.0
 16
0.0
 26
0.0
 36
1.0
 17
0.0
 27
0.0
 37
0.0
 40
297.0
 41
1.92798353909465
 42
50.0
 43
0.0
 44
0.0
 50
0.0
 51
0.0
 71
0
 72
100
 73
1
 74
3
 75
1
 76
1
 77
0
 78
0
281
0
 65
1
110
0.0
120
0.0
130
0.0
111
1.0
121
0.0
131
0.0
112
0.0
122
1.0
132
0.0
 79
0
146
0.0
  0
ENDTAB
  0
TABLE
  2
LTYPE
  5
5
100
AcDbSymbolTable
 70
21
  0
LTYPE
  5
14
100
AcDbSymbolTableRecord
100
AcDbLinetypeTableRecord
  2
ByBlock
 70
0
  3

 72
65
 73
0
 40
0.0
  0
LTYPE
  5
15
100
AcDbSymbolTableRecord
100
AcDbLinetypeTableRecord
  2
ByLayer
 70
0
  3

 72
65
 73
0
 40
0.0
  0
LTYPE
  5
16
100
AcDbSymbolTableRecord
100
AcDbLinetypeTableRecord
  2
CONTINUOUS
 70
0
  3
Solid line
 72
65
 73
0
 40
0.0
  0
LTYPE
  5
31
100
AcDbSymbolTableRecord
100
AcDbLinetypeTableRecord
  2
DOT
 70
0
  3
Dot . . . . . . . . . . . . . . . . . . . . . .
 72
65
 73
2
 40
6.3499999999999996
 49
0.0
 74
0
 49
-6.3499999999999996
 74
0
  0
LTYPE
  5
32
100
AcDbSymbolTableRecord
100
AcDbLinetypeTableRecord
  2
DOT2
 70
0
  3
Dot (.5x) .....................................
 72
65
 73
2
 40
3.1749999999999998
 49
0.0
 74
0
 49
-3.1749999999999998
 74
0
  0
LTYPE
  5
33
100
AcDbSymbolTableRecord
100
AcDbLinetypeTableRecord
  2
DOTX2
 70
0
  3
Dot (2x) .  .  .  .  .  .  .  .  .  .  .  .  .
 72
65
 73
2
 40
12.6999999999999993
 49
0.0
 74
0
 49
-12.6999999999999993
 74
0
  0
LTYPE
  5
34
100
AcDbSymbolTableRecord
100
AcDbLinetypeTableRecord
  2
DASHED
 70
0
  3
Dashed __ __ __ __ __ __ __ __ __ __ __ __ __ _
 72
65
 73
2
 40
19.0500000000000007
 49
12.6999999999999993
 74
0
 49
-6.3499999999999996
 74
0
  0
LTYPE
  5
35
100
AcDbSymbolTableRecord
100
AcDbLinetypeTableRecord
  2
DASHED2
 70
0
  3
Dashed (.5x) _ _ _ _ _ _ _ _ _ _ _ _ _ _ _ _ _
 72
65
 73
2
 40
9.5250000000000004
 49
6.3499999999999996
 74
0
 49
-3.1749999999999998
 74
0
  0
LTYPE
  5
36
100
AcDbSymbolTableRecord
100
AcDbLinetypeTableRecord
  2
DASHEDX2
 70
0
  3
Dashed (2x) ____  ____  ____  ____  ____  ___
 72
65
 73
2
 40
38.1000000000000014
 49
25.3999999999999986
 74
0
 49
-12.6999999999999993
 74
0
  0
LTYPE
  5
37
100
AcDbSymbolTableRecord
100
AcDbLinetypeTableRecord
  2
DASHDOT
 70
0
  3
Dash dot __ . __ . __ . __ . __ . __ . __ . __
 72
65
 73
4
 40
25.3999999999999986
 49
12.6999999999999993
 74
0
 49
-6.3499999999999996
 74
0
 49
0.0
 74
0
 49
-6.3499999999999996
 74
0
  0
LTYPE
  5
38
100
AcDbSymbolTableRecord
100
AcDbLinetypeTableRecord
  2
DASHDOT2
 70
0
  3
Dash dot (.5x) _._._._._._._._._._._._._._._.
 72
65
 73
4
 40
12.6999999999999993
 49
6.3499999999999996
 74
0
 49
-3.1749999999999998
 74
0
 49
0.0
 74
0
 49
-3.1749999999999998
 74
0
  0
LTYPE
  5
39
100
AcDbSymbolTableRecord
100
AcDbLinetypeTableRecord
  2
DASHDOTX2
 70
0
  3
Dash dot (2x) ____  .  ____  .  ____  .  ___
 72
65
 73
4
 40
50.7999999999999972
 49
25.3999999999999986
 74
0
 49
-12.6999999999999993
 74
0
 49
0.0
 74
0
 49
-12.6999999999999993
 74
0
  0
LTYPE
  5
3A
100
AcDbSymbolTableRecord
100
AcDbLinetypeTableRecord
  2
DIVIDE
 70
0
  3
Divide ____ . . ____ . . ____ . . ____ . . ____
 72
65
 73
6
 40
31.75
 49
12.6999999999999993
 74
0
 49
-6.3499999999999996
 74
0
 49
0.0
 74
0
 49
-6.3499999999999996
 74
0
 49
0.0
 74
0
 49
-6.3499999999999996
 74
0
  0
LTYPE
  5
3B
100
AcDbSymbolTableRecord
100
AcDbLinetypeTableRecord
  2
DIVIDE2
 70
0
  3
Divide (.5x) __..__..__..__..__..__..__..__.._
 72
65
 73
6
 40
15.875
 49
6.3499999999999996
 74
0
 49
-3.1749999999999998
 74
0
 49
0.0
 74
0
 49
-3.1749999999999998
 74
0
 49
0.0
 74
0
 49
-3.1749999999999998
 74
0
  0
LTYPE
  5
3C
100
AcDbSymbolTableRecord
100
AcDbLinetypeTableRecord
  2
DIVIDEX2
 70
0
  3
Divide (2x) ________  .  .  ________  .  .  _
 72
65
 73
6
 40
63.5
 49
25.3999999999999986
 74
0
 49
-12.6999999999999993
 74
0
 49
0.0
 74
0
 49
-12.6999999999999993
 74
0
 49
0.0
 74
0
 49
-12.6999999999999993
 74
0
  0
LTYPE
  5
3D
100
AcDbSymbolTableRecord
100
AcDbLinetypeTableRecord
  2
CENTER
 70
0
  3
Center ____ _ ____ _ ____ _ ____ _ ____ _ ____
 72
65
 73
4
 40
50.7999999999999972
 49
31.75
 74
0
 49
-6.3499999999999996
 74
0
 49
6.3499999999999996
 74
0
 49
-6.3499999999999996
 74
0
  0
LTYPE
  5
3E
100
AcDbSymbolTableRecord
100
AcDbLinetypeTableRecord
  2
CENTER2
 70
0
  3
Center (.5x) ___ _ ___ _ ___ _ ___ _ ___ _ ___
 72
65
 73
4
 40
28.5749999999999993
 49
19.0500000000000007
 74
0
 49
-3.1749999999999998
 74
0
 49
3.1749999999999998
 74
0
 49
-3.1749999999999998
 74
0
  0
LTYPE
  5
3F
100
AcDbSymbolTableRecord
100
AcDbLinetypeTableRecord
  2
CENTERX2
 70
0
  3
Center (2x) ________  __  ________  __  _____
 72
65
 73
4
 40
101.5999999999999943
 49
63.5
 74
0
 49
-12.6999999999999993
 74
0
 49
12.6999999999999993
 74
0
 49
-12.6999999999999993
 74
0
  0
LTYPE
  5
40
100
AcDbSymbolTableRecord
100
AcDbLinetypeTableRecord
  2
BORDER
 70
0
  3
Border __ __ . __ __ . __ __ . __ __ . __ __ .
 72
65
 73
6
 40
44.4500000000000028
 49
12.6999999999999993
 74
0
 49
-6.3499999999999996
 74
0
 49
12.6999999999999993
 74
0
 49
-6.3499999999999996
 74
0
 49
0.0
 74
0
 49
-6.3499999999999996
 74
0
  0
LTYPE
  5
41
100
AcDbSymbolTableRecord
100
AcDbLinetypeTableRecord
  2
BORDER2
 70
0
  3
Border (.5x) __.__.__.__.__.__.__.__.__.__.__.
 72
65
 73
6
 40
22.2250000000000014
 49
6.3499999999999996
 74
0
 49
-3.1749999999999998
 74
0
 49
6.3499999999999996
 74
0
 49
-3.1749999999999998
 74
0
 49
0.0
 74
0
 49
-3.1749999999999998
 74
0
  0
LTYPE
  5
42
100
AcDbSymbolTableRecord
100
AcDbLinetypeTableRecord
  2
BORDERX2
 70
0
  3
Border (2x) ____  ____  .  ____  ____  .  ___
 72
65
 73
6
 40
88.9000000000000057
 49
25.3999999999999986
 74
0
 49
-12.6999999999999993
 74
0
 49
25.3999999999999986
 74
0
 49
-12.6999999999999993
 74
0
 49
0.0
 74
0
 49
-12.6999999999999993
 74
0
  0
ENDTAB
  0
TABLE
  2
LAYER
  5
2
100
AcDbSymbolTable
 70
2
  0
LAYER
  5
10
100
AcDbSymbolTableRecord
100
AcDbLayerTableRecord
  2
0
 70
1
 62
7
  6
CONTINUOUS
370
0
390
F
  0
LAYER
  5
43
100
AcDbSymbolTableRecord
100
AcDbLayerTableRecord
  2
1
 70
0
 62
7
  6
CONTINUOUS
370
0
390
F
  0
ENDTAB
  0
TABLE
  2
STYLE
  5
3
100
AcDbSymbolTable
 70
1
  0
STYLE
  5
11
100
AcDbSymbolTableRecord
100
AcDbTextStyleTableRecord
  2
Standard
 70
0
 40
0.0
 41
0.75
 50
0.0
 71
0
 42
2.5
  3
txt
  4

  0
ENDTAB
  0
TABLE
  2
VIEW
  5
6
100
AcDbSymbolTable
 70
0
  0
ENDTAB
  0
TABLE
  2
UCS
  5
7
100
AcDbSymbolTable
 70
0
  0
ENDTAB
  0
TABLE
  2
APPID
  5
9
100
AcDbSymbolTable
 70
1
  0
APPID
  5
12
100
AcDbSymbolTableRecord
100
AcDbRegAppTableRecord
  2
ACAD
 70
0
  0
ENDTAB
  0
TABLE
  2
DIMSTYLE
  5
A
100
AcDbSymbolTable
 70
1
100
AcDbDimStyleTable
 71
0
  0
DIMSTYLE
105
27
100
AcDbSymbolTableRecord
100
AcDbDimStyleTableRecord
  2
Standard
 41
2.5
 42
0.625
 43
3.75
 44
1.25
 70
0
 73
0
 74
0
 77
1
 78
8
140
2.5
141
2.5
143
0.03937007874016
147
0.625
171
3
172
1
271
2
272
2
274
3
278
44
283
0
284
8
340
11
  0
ENDTAB
  0
TABLE
  2
BLOCK_RECORD
  5
1
100
AcDbSymbolTable
 70
1
  0
BLOCK_RECORD
  5
1F
100
AcDbSymbolTableRecord
100
AcDbBlockTableRecord
  2
*Model_Space
340
22
  0
BLOCK_RECORD
  5
1B
100
AcDbSymbolTableRecord
100
AcDbBlockTableRecord
  2
*Paper_Space
340
1E
  0
BLOCK_RECORD
  5
23
100
AcDbSymbolTableRecord
100
AcDbBlockTableRecord
  2
*Paper_Space0
340
26
  0
ENDTAB
  0
ENDSEC
  0
SECTION
  2
BLOCKS
  0
BLOCK
  5
20
100
AcDbEntity
  8
0
100
AcDbBlockBegin
  2
*Model_Space
 70
0
 10
0.0
 20
0.0
 30
0.0
  3
*Model_Space
  1

  0
ENDBLK
  5
21
100
AcDbEntity
  8
0
100
AcDbBlockEnd
  0
BLOCK
  5
1C
100
AcDbEntity
 67
1
  8
0
100
AcDbBlockBegin
  2
*Paper_Space
 70
0
 10
0.0
 20
0.0
 30
0.0
  3
*Paper_Space
  1

  0
ENDBLK
  5
1D
100
AcDbEntity
 67
1
  8
0
100
AcDbBlockEnd
  0
BLOCK
  5
24
100
AcDbEntity
  8
0
100
AcDbBlockBegin
  2
*Paper_Space0
 70
0
 10
0.0
 20
0.0
 30
0.0
  3
*Paper_Space0
  1

  0
ENDBLK
  5
25
100
AcDbEntity
  8
0
100
AcDbBlockEnd
  0
ENDSEC
  0
SECTION
  2
ENTITIES
  0
IMAGE
  5
44
  8
0
 62
256
370
15
  6
ByLayer
100
AcDbEntity
100
AcDbRasterImage
 90
0
 10
65.5
 20
47.0
 30
0.0
 11
1.0
 21
0.0
 31
0.0
 12
0.0000000000000001
 22
1.0
 32
0.0
 13
638.0
 23
492.0
340
45
 70
15
280
0
281
50
282
50
283
0
  0
LINE
  5
46
100
AcDbEntity
100
AcDbLine
  8
1
 62
256
370
200
  6
ByLayer
 10
663.4521484375015916
 20
281.3720703125006821
 30
0.0
 11
126.9531250000002984
 21
283.8134765625006821
 31
0.0
  0
LINE
  5
47
100
AcDbEntity
100
AcDbLine
  8
1
 62
256
370
200
  6
ByLayer
 10
636.5966796875032969
 20
281.9824218750014211
 30
0.0
 11
636.5966796875032969
 21
288.9824218750014211
 31
0.0
  0
LINE
  5
48
100
AcDbEntity
100
AcDbLine
  8
1
 62
256
370
200
  6
ByLayer
 10
576.1718750000029559
 20
280.1513671875014211
 30
0.0
 11
576.1718750000029559
 21
287.1513671875014211
 31
0.0
  0
LINE
  5
49
100
AcDbEntity
100
AcDbLine
  8
1
 62
256
370
200
  6
ByLayer
 10
514.5263671875026148
 20
280.7617187500014211
 30
0.0
 11
514.5263671875026148
 21
287.7617187500014211
 31
0.0
  0
LINE
  5
4A
100
AcDbEntity
100
AcDbLine
  8
1
 62
256
370
200
  6
ByLayer
 10
451.6601562500023306
 20
281.9824218750014211
 30
0.0
 11
451.6601562500023306
 21
288.9824218750014211
 31
0.0
  0
LINE
  5
4B
100
AcDbEntity
100
AcDbLine
  8
1
 62
256
370
200
  6
ByLayer
 10
327.7587890625016485
 20
281.9824218750014211
 30
0.0
 11
327.7587890625016485
 21
288.9824218750014211
 31
0.0
  0
LINE
  5
4C
100
AcDbEntity
100
AcDbLine
  8
1
 62
256
370
200
  6
ByLayer
 10
267.3339843750013642
 20
282.5927734375014211
 30
0.0
 11
267.3339843750013642
 21
289.5927734375014211
 31
0.0
  0
LINE
  5
4D
100
AcDbEntity
100
AcDbLine
  8
1
 62
256
370
200
  6
ByLayer
 10
205.6884765625010516
 20
283.8134765625014211
 30
0.0
 11
205.6884765625010516
 21
290.8134765625014211
 31
0.0
  0
LINE
  5
4E
100
AcDbEntity
100
AcDbLine
  8
1
 62
256
370
200
  6
ByLayer
 10
145.263671875000739
 20
283.8134765625014211
 30
0.0
 11
145.263671875000739
 21
290.8134765625014211
 31
0.0
  0
CIRCLE
  5
4F
100
AcDbEntity
100
AcDbCircle
  8
1
 62
256
370
200
  6
ByLayer
 10
548.6149632000166321
 20
418.5495961600126407
 30
0.0
 40
3.0776018206249751
  0
SPLINE
  5
50
  8
1
 62
256
370
200
  6
ByLayer
100
AcDbEntity
100
AcDbSpline
 70
8
 71
3
 72
136
 73
132
 74
0
 40
0.0
 40
0.0
 40
0.0
 40
0.0
 40
0.0077519379844961
 40
0.0155038759689922
 40
0.0232558139534884
 40
0.0310077519379845
 40
0.0387596899224806
 40
0.0465116279069767
 40
0.0542635658914729
 40
0.062015503875969
 40
0.0697674418604651
 40
0.0775193798449612
 40
0.0852713178294574
 40
0.0930232558139535
 40
0.1007751937984496
 40
0.1085271317829457
 40
0.1162790697674419
 40
0.124031007751938
 40
0.1317829457364341
 40
0.1395348837209302
 40
0.1472868217054264
 40
0.1550387596899225
 40
0.1627906976744186
 40
0.1705426356589147
 40
0.1782945736434109
 40
0.186046511627907
 40
0.1937984496124031
 40
0.2015503875968992
 40
0.2093023255813954
 40
0.2170542635658915
 40
0.2248062015503876
 40
0.2325581395348837
 40
0.2403100775193799
 40
0.248062015503876
 40
0.2558139534883721
 40
0.2635658914728682
 40
0.2713178294573643
 40
0.2790697674418605
 40
0.2868217054263566
 40
0.2945736434108527
 40
0.3023255813953488
 40
0.310077519379845
 40
0.3178294573643411
 40
0.3255813953488372
 40
0.3333333333333333
 40
0.3410852713178295
 40
0.3488372093023256
 40
0.3565891472868217
 40
0.3643410852713178
 40
0.3720930232558139
 40
0.3798449612403101
 40
0.3875968992248062
 40
0.3953488372093023
 40
0.4031007751937984
 40
0.4108527131782946
 40
0.4186046511627907
 40
0.4263565891472868
 40
0.4341085271317829
 40
0.4418604651162791
 40
0.4496124031007752
 40
0.4573643410852713
 40
0.4651162790697674
 40
0.4728682170542636
 40
0.4806201550387597
 40
0.4883720930232558
 40
0.4961240310077519
 40
0.5038759689922481
 40
0.5116279069767442
 40
0.5193798449612403
 40
0.5271317829457365
 40
0.5348837209302325
 40
0.5426356589147286
 40
0.5503875968992248
 40
0.5581395348837209
 40
0.5658914728682171
 40
0.5736434108527132
 40
0.5813953488372093
 40
0.5891472868217055
 40
0.5968992248062015
 40
0.6046511627906976
 40
0.6124031007751938
 40
0.6201550387596899
 40
0.6279069767441861
 40
0.6356589147286822
 40
0.6434108527131783
 40
0.6511627906976745
 40
0.6589147286821705
 40
0.6666666666666666
 40
0.6744186046511628
 40
0.6821705426356589
 40
0.689922480620155
 40
0.6976744186046512
 40
0.7054263565891473
 40
0.7131782945736435
 40
0.7209302325581395
 40
0.7286821705426356
 40
0.7364341085271318
 40
0.7441860465116279
 40
0.751937984496124
 40
0.7596899224806202
 40
0.7674418604651163
 40
0.7751937984496124
 40
0.7829457364341085
 40
0.7906976744186046
 40
0.7984496124031008
 40
0.8062015503875969
 40
0.813953488372093
 40
0.8217054263565892
 40
0.8294573643410853
 40
0.8372093023255814
 40
0.8449612403100775
 40
0.8527131782945736
 40
0.8604651162790697
 40
0.8682170542635659
 40
0.875968992248062
 40
0.8837209302325582
 40
0.8914728682170543
 40
0.8992248062015504
 40
0.9069767441860465
 40
0.9147286821705426
 40
0.9224806201550387
 40
0.9302325581395349
 40
0.937984496124031
 40
0.9457364341085271
 40
0.9534883720930233
 40
0.9612403100775194
 40
0.9689922480620154
 40
0.9767441860465116
 40
0.9844961240310077
 40
0.9922480620155039
 40
1.0
 40
1.0
 40
1.0
 40
1.0
 10
525.0000000000037517
 20
428.0000000000030695
 30
0.0
 10
529.5000000000038654
 20
436.5000000000031264
 30
0.0
 10
537.5000000000038654
 20
442.0000000000031832
 30
0.0
 10
545.250000000003979
 20
445.0000000000031832
 30
0.0
 10
549.500000000003979
 20
444.7500000000031832
 30
0.0
 10
555.250000000003979
 20
444.5000000000031832
 30
0.0
 10
558.500000000003979
 20
443.0000000000031832
 30
0.0
 10
563.2500000000040927
 20
441.0000000000031832
 30
0.0
 10
568.5000000000040927
 20
438.0000000000031832
 30
0.0
 10
570.5000000000040927
 20
434.2500000000031264
 30
0.0
 10
573.5000000000040927
 20
429.5000000000031264
 30
0.0
 10
574.7500000000040927
 20
424.7500000000030695
 30
0.0
 10
575.7500000000042064
 20
418.2500000000030127
 30
0.0
 10
575.0000000000040927
 20
411.0000000000029559
 30
0.0
 10
573.0000000000040927
 20
402.250000000002899
 30
0.0
 10
568.7500000000040927
 20
396.5000000000028422
 30
0.0
 10
564.7500000000040927
 20
394.2500000000028422
 30
0.0
 10
560.1280000000216432
 20
391.8080000000151131
 30
0.0
 10
554.3680000000213113
 20
389.6320000000150117
 30
0.0
 10
549.500000000003979
 20
388.7500000000027853
 30
0.0
 10
542.5000000000038654
 20
388.2500000000027853
 30
0.0
 10
536.7500000000038654
 20
390.2500000000028422
 30
0.0
 10
530.7500000000038654
 20
392.5000000000028422
 30
0.0
 10
524.5000000000037517
 20
397.5000000000028422
 30
0.0
 10
520.7500000000037517
 20
402.250000000002899
 30
0.0
 10
517.7500000000037517
 20
406.7500000000029559
 30
0.0
 10
515.0000000000037517
 20
412.7500000000029559
 30
0.0
 10
512.7500000000037517
 20
419.7500000000030127
 30
0.0
 10
513.2500000000037517
 20
428.2500000000030695
 30
0.0
 10
515.2500000000037517
 20
435.7500000000031264
 30
0.0
 10
517.0000000000037517
 20
440.2500000000031832
 30
0.0
 10
520.5000000000037517
 20
444.5000000000031832
 30
0.0
 10
524.5000000000037517
 20
447.7500000000032401
 30
0.0
 10
528.2500000000038654
 20
450.0000000000032401
 30
0.0
 10
533.5000000000038654
 20
453.0000000000032969
 30
0.0
 10
540.2500000000038654
 20
455.7500000000032969
 30
0.0
 10
547.500000000003979
 20
457.2500000000032969
 30
0.0
 10
553.250000000003979
 20
457.2500000000032969
 30
0.0
 10
559.7500000000040927
 20
456.5000000000032969
 30
0.0
 10
565.5000000000040927
 20
454.0000000000032969
 30
0.0
 10
570.7500000000040927
 20
452.2500000000032401
 30
0.0
 10
575.2500000000042064
 20
448.7500000000032401
 30
0.0
 10
580.5000000000042064
 20
444.5000000000031832
 30
0.0
 10
584.5000000000042064
 20
439.0000000000031832
 30
0.0
 10
587.2500000000042064
 20
434.0000000000031264
 30
0.0
 10
589.5000000000042064
 20
428.2500000000030695
 30
0.0
 10
591.0000000000043201
 20
420.0000000000030127
 30
0.0
 10
591.2500000000043201
 20
413.5000000000029559
 30
0.0
 10
591.0000000000043201
 20
407.2500000000029559
 30
0.0
 10
590.2500000000042064
 20
401.750000000002899
 30
0.0
 10
588.2880000000226346
 20
396.6720000000152595
 30
0.0
 10
585.0880000000225891
 20
391.1680000000150699
 30
0.0
 10
580.0000000000042064
 20
384.5000000000027853
 30
0.0
 10
575.2320000000221398
 20
380.4160000000146624
 30
0.0
 10
568.0000000000040927
 20
376.0000000000027285
 30
0.0
 10
562.5600000000216596
 20
374.1440000000144437
 30
0.0
 10
557.500000000003979
 20
373.5000000000026716
 30
0.0
 10
552.500000000003979
 20
373.0000000000026716
 30
0.0
 10
547.250000000003979
 20
372.7500000000026716
 30
0.0
 10
541.0000000000038654
 20
372.7500000000026716
 30
0.0
 10
535.5000000000038654
 20
373.7500000000026716
 30
0.0
 10
530.7500000000038654
 20
375.2500000000027285
 30
0.0
 10
524.7500000000037517
 20
378.0000000000027285
 30
0.0
 10
519.2500000000037517
 20
381.2500000000027285
 30
0.0
 10
517.2500000000037517
 20
383.0000000000027853
 30
0.0
 10
513.5000000000037517
 20
386.2500000000027853
 30
0.0
 10
510.7500000000036948
 20
389.2500000000027853
 30
0.0
 10
506.000000000003638
 20
394.7500000000028422
 30
0.0
 10
503.750000000003638
 20
398.500000000002899
 30
0.0
 10
500.250000000003638
 20
405.7500000000029559
 30
0.0
 10
498.7500000000035811
 20
411.2500000000029559
 30
0.0
 10
497.2500000000035811
 20
417.0000000000030127
 30
0.0
 10
495.5000000000035811
 20
425.0000000000030695
 30
0.0
 10
495.2500000000035811
 20
432.7500000000031264
 30
0.0
 10
496.5000000000035811
 20
440.7500000000031832
 30
0.0
 10
498.7500000000035811
 20
446.7500000000032401
 30
0.0
 10
501.750000000003638
 20
452.7500000000032401
 30
0.0
 10
504.000000000003638
 20
458.0000000000032969
 30
0.0
 10
512.000000000003638
 20
467.0000000000033538
 30
0.0
 10
517.7500000000037517
 20
472.2500000000034106
 30
0.0
 10
524.2500000000037517
 20
477.2500000000034674
 30
0.0
 10
529.0000000000038654
 20
481.2500000000034674
 30
0.0
 10
534.2500000000038654
 20
483.2500000000034674
 30
0.0
 10
539.2500000000038654
 20
484.5000000000035243
 30
0.0
 10
543.5000000000038654
 20
486.2500000000035243
 30
0.0
 10
548.750000000003979
 20
487.2500000000035243
 30
0.0
 10
555.250000000003979
 20
487.0000000000035243
 30
0.0
 10
560.7500000000040927
 20
486.7500000000035243
 30
0.0
 10
565.2500000000040927
 20
486.7500000000035243
 30
0.0
 10
573.7500000000040927
 20
485.7500000000035243
 30
0.0
 10
582.5000000000042064
 20
483.0000000000034674
 30
0.0
 10
592.5000000000043201
 20
479.2500000000034674
 30
0.0
 10
597.5000000000043201
 20
476.7500000000034674
 30
0.0
 10
605.0000000000043201
 20
471.5000000000034106
 30
0.0
 10
609.7500000000044338
 20
467.5000000000033538
 30
0.0
 10
614.7500000000044338
 20
462.7500000000033538
 30
0.0
 10
619.7500000000044338
 20
455.2500000000032969
 30
0.0
 10
622.7500000000045475
 20
449.5000000000032401
 30
0.0
 10
627.0000000000045475
 20
442.0000000000031832
 30
0.0
 10
630.2500000000045475
 20
431.7500000000031264
 30
0.0
 10
632.7500000000045475
 20
422.2500000000030695
 30
0.0
 10
632.2500000000045475
 20
414.0000000000030127
 30
0.0
 10
633.7500000000045475
 20
402.000000000002899
 30
0.0
 10
632.5000000000045475
 20
393.2500000000028422
 30
0.0
 10
631.0000000000045475
 20
387.0000000000027853
 30
0.0
 10
629.2500000000045475
 20
382.5000000000027853
 30
0.0
 10
627.2500000000045475
 20
377.7500000000027285
 30
0.0
 10
624.7500000000045475
 20
371.5000000000026716
 30
0.0
 10
621.5000000000044338
 20
366.7500000000026716
 30
0.0
 10
618.5000000000044338
 20
361.7500000000026148
 30
0.0
 10
613.0000000000044338
 20
352.750000000002558
 30
0.0
 10
607.0000000000044338
 20
344.5000000000025011
 30
0.0
 10
600.5000000000043201
 20
335.7500000000024443
 30
0.0
 10
593.5000000000043201
 20
327.2500000000023874
 30
0.0
 10
587.7500000000042064
 20
323.7500000000023306
 30
0.0
 10
581.2500000000042064
 20
318.7500000000022737
 30
0.0
 10
574.7500000000040927
 20
314.2500000000022737
 30
0.0
 10
567.5000000000040927
 20
309.7500000000022169
 30
0.0
 10
561.0000000000040927
 20
306.2500000000022169
 30
0.0
 10
553.750000000003979
 20
303.5000000000022169
 30
0.0
 10
546.000000000003979
 20
300.25000000000216
 30
0.0
 10
541.0000000000038654
 20
297.75000000000216
 30
0.0
 10
534.7500000000038654
 20
296.00000000000216
 30
0.0
 10
525.7500000000037517
 20
293.7500000000021032
 30
0.0
 10
515.7500000000037517
 20
291.2500000000021032
 30
0.0
 10
507.500000000003638
 20
288.7500000000021032
 30
0.0
 10
498.5000000000035811
 20
287.2500000000020464
 30
0.0
 10
493.0000000000035811
 20
286.2500000000020464
 30
0.0
 10
480.2500000000034674
 20
284.7500000000020464
 30
0.0
 10
470.0000000000034106
 20
284.0000000000020464
 30
0.0
 10
452.0000000000032401
 20
282.2500000000020464
 30
0.0
 10
445.5000000000032401
 20
281.7500000000020464
 30
0.0
  0
LINE
  5
51
100
AcDbEntity
100
AcDbLine
  8
1
 62
256
370
200
  6
ByLayer
 10
551.2993177600167201
 20
420.0176025600127332
 30
0.0
 11
628.9062500000030695
 21
438.47656250000216
 31
0.0
  0
LINE
  5
52
100
AcDbEntity
100
AcDbLine
  8
1
 62
256
370
200
  6
ByLayer
 10
549.6215961600166793
 20
415.6555264000125476
 30
0.0
 11
580.0781250000028422
 21
318.8476562500015916
 31
0.0
  0
LINE
  5
53
100
AcDbEntity
100
AcDbLine
  8
1
 62
256
370
200
  6
ByLayer
 10
547.8599884800165682
 20
415.4877542400125776
 30
0.0
 11
492.5781250000019327
 21
285.9375000000011369
 31
0.0
  0
LINE
  5
54
100
AcDbEntity
100
AcDbLine
  8
1
 62
256
370
200
  6
ByLayer
 10
292.7780151367197163
 20
134.4680786132816763
 30
0.0
 11
547.3147289600165095
 21
415.6135833600125693
 31
0.0
  0
LINE
  5
55
100
AcDbEntity
100
AcDbLine
  8
1
 62
256
370
200
  6
ByLayer
 10
158.2031250000004832
 20
185.0585937500005684
 30
0.0
 11
545.5950643200164905
 21
417.5429632000126503
 31
0.0
  0
LINE
  5
56
100
AcDbEntity
100
AcDbLine
  8
1
 62
256
370
200
  6
ByLayer
 10
392.1985626220713357
 20
480.4134368896496881
 30
0.0
 11
391.0064697265635232
 21
64.3730163574220455
 31
0.0
  0
LINE
  5
57
100
AcDbEntity
100
AcDbLine
  8
1
 62
256
370
200
  6
ByLayer
 10
146.4843750000059117
 20
163.2812500000065938
 30
0.0
 11
155.0781250000062528
 21
162.109375000006537
 31
0.0
  0
LINE
  5
58
100
AcDbEntity
100
AcDbLine
  8
1
 62
256
370
200
  6
ByLayer
 10
210.9375000000085265
 20
144.9218750000058549
 30
0.0
 11
203.9062500000082423
 21
144.5312500000058265
 31
0.0
  0
LINE
  5
59
100
AcDbEntity
100
AcDbLine
  8
1
 62
256
370
200
  6
ByLayer
 10
250.3906250000101181
 20
111.7187500000045191
 30
0.0
 11
255.0781250000103171
 21
104.6875000000042348
 31
0.0
  0
LINE
  5
5A
100
AcDbEntity
100
AcDbLine
  8
1
 62
256
370
200
  6
ByLayer
 10
544.1406250000219416
 20
293.3593750000118234
 30
0.0
 11
541.0156250000218279
 21
303.5156250000122782
 31
0.0
  0
LINE
  5
5B
100
AcDbEntity
100
AcDbLine
  8
1
 62
256
370
200
  6
ByLayer
 10
637.5000000000258069
 20
394.5312500000159162
 30
0.0
 11
627.7343750000253522
 21
398.0468750000160867
 31
0.0
  0
LINE
  5
5C
100
AcDbEntity
100
AcDbLine
  8
1
 62
256
370
200
  6
ByLayer
 10
579.6875000000234195
 20
417.1875000000168257
 30
0.0
 11
571.4843750000230784
 21
417.1875000000168257
 31
0.0
  0
LINE
  5
5D
100
AcDbEntity
100
AcDbLine
  8
1
 62
256
370
200
  6
ByLayer
 10
537.1093750000217142
 20
449.6093750000181899
 30
0.0
 11
533.2031250000214868
 21
457.0312500000184741
 31
0.0
  0
LINE
  5
5E
100
AcDbEntity
100
AcDbLine
  8
1
 62
256
370
200
  6
ByLayer
 10
531.2500000000214868
 20
477.3437500000192699
 30
0.0
 11
525.3906250000212594
 21
483.5937500000195541
 31
0.0
  0
CIRCLE
  5
5F
100
AcDbEntity
100
AcDbCircle
  8
1
 62
256
370
200
  6
ByLayer
 10
551.9360000000230002
 20
487.0400000000203136
 30
0.0
 40
2.1872649588013533
  0
CIRCLE
  5
60
100
AcDbEntity
100
AcDbCircle
  8
1
 62
256
370
200
  6
ByLayer
 10
234.0000000000101181
 20
145.7500000000063096
 30
0.0
 40
3.7583240945933971
  0
SPLINE
  5
61
  8
1
 62
256
370
200
  6
ByLayer
100
AcDbEntity
100
AcDbSpline
 70
8
 71
3
 72
99
 73
95
 74
0
 40
0.0
 40
0.0
 40
0.0
 40
0.0
 40
0.0108695652173913
 40
0.0217391304347826
 40
0.0326086956521739
 40
0.0434782608695652
 40
0.0543478260869565
 40
0.0652173913043478
 40
0.0760869565217391
 40
0.0869565217391304
 40
0.0978260869565217
 40
0.108695652173913
 40
0.1195652173913044
 40
0.1304347826086956
 40
0.1413043478260869
 40
0.1521739130434783
 40
0.1630434782608696
 40
0.1739130434782609
 40
0.1847826086956522
 40
0.1956521739130435
 40
0.2065217391304348
 40
0.2173913043478261
 40
0.2282608695652174
 40
0.2391304347826087
 40
0.25
 40
0.2608695652173913
 40
0.2717391304347826
 40
0.2826086956521739
 40
0.2934782608695652
 40
0.3043478260869565
 40
0.3152173913043478
 40
0.3260869565217391
 40
0.3369565217391304
 40
0.3478260869565217
 40
0.358695652173913
 40
0.3695652173913043
 40
0.3804347826086957
 40
0.391304347826087
 40
0.4021739130434783
 40
0.4130434782608696
 40
0.4239130434782609
 40
0.4347826086956522
 40
0.4456521739130435
 40
0.4565217391304348
 40
0.4673913043478261
 40
0.4782608695652174
 40
0.4891304347826087
 40
0.5
 40
0.5108695652173914
 40
0.5217391304347826
 40
0.5326086956521739
 40
0.5434782608695652
 40
0.5543478260869565
 40
0.5652173913043478
 40
0.5760869565217391
 40
0.5869565217391305
 40
0.5978260869565217
 40
0.6086956521739131
 40
0.6195652173913043
 40
0.6304347826086957
 40
0.6413043478260869
 40
0.6521739130434783
 40
0.6630434782608695
 40
0.6739130434782609
 40
0.6847826086956522
 40
0.6956521739130435
 40
0.7065217391304348
 40
0.7173913043478261
 40
0.7282608695652174
 40
0.7391304347826086
 40
0.75
 40
0.7608695652173914
 40
0.7717391304347826
 40
0.7826086956521739
 40
0.7934782608695652
 40
0.8043478260869565
 40
0.8152173913043478
 40
0.8260869565217391
 40
0.8369565217391305
 40
0.8478260869565217
 40
0.8586956521739131
 40
0.8695652173913043
 40
0.8804347826086957
 40
0.8913043478260869
 40
0.9021739130434783
 40
0.9130434782608695
 40
0.9239130434782609
 40
0.9347826086956522
 40
0.9456521739130435
 40
0.9565217391304348
 40
0.9673913043478261
 40
0.9782608695652174
 40
0.9891304347826086
 40
1.0
 40
1.0
 40
1.0
 40
1.0
 10
261.0000000000016485
 20
138.5000000000008527
 30
0.0
 10
258.5000000000015916
 20
130.2500000000007958
 30
0.0
 10
254.5000000000015916
 20
125.5000000000007816
 30
0.0
 10
249.7500000000015632
 20
122.0000000000007532
 30
0.0
 10
246.0000000000015348
 20
119.500000000000739
 30
0.0
 10
241.2500000000015064
 20
117.5000000000007248
 30
0.0
 10
233.7500000000014495
 20
116.2500000000007248
 30
0.0
 10
229.7500000000014211
 20
117.0000000000007248
 30
0.0
 10
225.0000000000013927
 20
118.500000000000739
 30
0.0
 10
221.7500000000013927
 20
120.000000000000739
 30
0.0
 10
217.7500000000013642
 20
122.2500000000007532
 30
0.0
 10
214.0000000000013358
 20
125.2500000000007816
 30
0.0
 10
212.2500000000013074
 20
127.7500000000007958
 30
0.0
 10
209.14176000000964
 20
131.9731200000060767
 30
0.0
 10
207.250000000001279
 20
135.7500000000008527
 30
0.0
 10
207.000000000001279
 20
142.2500000000008811
 30
0.0
 10
207.000000000001279
 20
149.5000000000009379
 30
0.0
 10
208.5000000000013074
 20
157.2500000000009663
 30
0.0
 10
212.2500000000013074
 20
163.7500000000010232
 30
0.0
 10
218.0000000000013642
 20
170.2500000000010516
 30
0.0
 10
222.2500000000013927
 20
173.00000000000108
 30
0.0
 10
227.7500000000014211
 20
175.00000000000108
 30
0.0
 10
231.5000000000014495
 20
176.5000000000011084
 30
0.0
 10
237.0000000000014779
 20
176.7500000000011084
 30
0.0
 10
240.7500000000015064
 20
176.2500000000011084
 30
0.0
 10
246.2500000000015348
 20
175.50000000000108
 30
0.0
 10
251.0000000000015632
 20
174.25000000000108
 30
0.0
 10
254.0000000000015916
 20
172.50000000000108
 30
0.0
 10
256.2500000000015916
 20
171.2500000000010516
 30
0.0
 10
262.2500000000016485
 20
166.7500000000010232
 30
0.0
 10
265.7500000000016485
 20
162.0000000000009948
 30
0.0
 10
267.5000000000016485
 20
158.0000000000009948
 30
0.0
 10
271.0000000000017053
 20
151.2500000000009379
 30
0.0
 10
272.7500000000017053
 20
141.7500000000008811
 30
0.0
 10
272.7500000000017053
 20
134.7500000000008242
 30
0.0
 10
269.5000000000016485
 20
126.7500000000007816
 30
0.0
 10
265.7500000000016485
 20
117.750000000000739
 30
0.0
 10
261.0000000000016485
 20
112.2500000000006963
 30
0.0
 10
251.7500000000015632
 20
106.5000000000006679
 30
0.0
 10
245.5000000000015348
 20
105.0000000000006537
 30
0.0
 10
239.2883200000109127
 20
103.9564800000047313
 30
0.0
 10
232.0000000000014495
 20
103.5000000000006395
 30
0.0
 10
218.2500000000013642
 20
107.0000000000006679
 30
0.0
 10
213.2500000000013358
 20
110.5000000000006821
 30
0.0
 10
207.750000000001279
 20
114.2500000000007105
 30
0.0
 10
203.750000000001279
 20
118.750000000000739
 30
0.0
 10
200.5000000000012506
 20
124.0000000000007674
 30
0.0
 10
197.0176000000090824
 20
128.7782400000059511
 30
0.0
 10
195.7500000000012221
 20
134.5000000000008242
 30
0.0
 10
194.2500000000011937
 20
143.7500000000008811
 30
0.0
 10
194.5000000000012221
 20
154.7500000000009663
 30
0.0
 10
197.7500000000012221
 20
164.7500000000010232
 30
0.0
 10
199.7500000000012506
 20
170.0000000000010516
 30
0.0
 10
204.500000000001279
 20
174.75000000000108
 30
0.0
 10
208.7500000000013074
 20
178.2500000000011084
 30
0.0
 10
211.7500000000013074
 20
182.0000000000011369
 30
0.0
 10
217.5000000000013642
 20
185.0000000000011369
 30
0.0
 10
223.2500000000013927
 20
186.5000000000011653
 30
0.0
 10
230.0000000000014211
 20
189.5000000000011653
 30
0.0
 10
236.0000000000014779
 20
190.0000000000011937
 30
0.0
 10
241.5000000000015064
 20
188.7500000000011653
 30
0.0
 10
247.7500000000015348
 20
188.5000000000011653
 30
0.0
 10
256.0000000000015916
 20
185.7500000000011653
 30
0.0
 10
261.7500000000016485
 20
182.7500000000011369
 30
0.0
 10
268.0000000000016485
 20
179.5000000000011084
 30
0.0
 10
273.7500000000017053
 20
174.75000000000108
 30
0.0
 10
277.0000000000017053
 20
171.0000000000010516
 30
0.0
 10
283.2500000000017621
 20
162.2500000000009948
 30
0.0
 10
286.7500000000017621
 20
155.0000000000009663
 30
0.0
 10
289.500000000001819
 20
143.7500000000008811
 30
0.0
 10
290.500000000001819
 20
137.5000000000008527
 30
0.0
 10
289.500000000001819
 20
127.5000000000007958
 30
0.0
 10
288.6000000000128694
 20
123.0000000000054854
 30
0.0
 10
287.0000000000017621
 20
117.2500000000007248
 30
0.0
 10
284.5000000000017621
 20
110.0000000000006821
 30
0.0
 10
282.0000000000017621
 20
104.2500000000006537
 30
0.0
 10
278.0000000000017053
 20
99.7500000000006253
 30
0.0
 10
274.7500000000017053
 20
97.0000000000005969
 30
0.0
 10
270.6000000000120735
 20
92.4000000000041268
 30
0.0
 10
265.6000000000118462
 20
87.4000000000038995
 30
0.0
 10
260.9971200000118756
 20
84.6233600000038564
 30
0.0
 10
253.5000000000015632
 20
81.5000000000005116
 30
0.0
 10
247.2500000000015348
 20
79.2500000000004974
 30
0.0
 10
240.2500000000015064
 20
78.0000000000004832
 30
0.0
 10
234.7008000000107018
 20
76.7590400000034947
 30
0.0
 10
228.2500000000014211
 20
76.250000000000469
 30
0.0
 10
221.7500000000013927
 20
77.2500000000004832
 30
0.0
 10
215.2500000000013358
 20
77.7500000000004832
 30
0.0
 10
207.000000000001279
 20
79.7500000000004974
 30
0.0
 10
202.5000000000012506
 20
81.0000000000004974
 30
0.0
 10
197.600000000008805
 20
82.800000000003692
 30
0.0
 10
193.6000000000086345
 20
84.8000000000037772
 30
0.0
 10
188.5000000000011653
 20
87.00000000000054
 30
0.0
 10
184.2500000000011369
 20
90.5000000000005684
 30
0.0
 10
176.2695312500089528
 20
95.7031250000048601
 30
0.0
  0
SPLINE
  5
62
  8
1
 62
256
370
200
  6
ByLayer
100
AcDbEntity
100
AcDbSpline
 70
8
 71
3
 72
51
 73
47
 74
0
 40
0.0
 40
0.0
 40
0.0
 40
0.0
 40
0.0227272727272727
 40
0.0454545454545455
 40
0.0681818181818182
 40
0.0909090909090909
 40
0.1136363636363636
 40
0.1363636363636364
 40
0.1590909090909091
 40
0.1818181818181818
 40
0.2045454545454546
 40
0.2272727272727273
 40
0.25
 40
0.2727272727272727
 40
0.2954545454545455
 40
0.3181818181818182
 40
0.3409090909090909
 40
0.3636363636363636
 40
0.3863636363636364
 40
0.4090909090909091
 40
0.4318181818181818
 40
0.4545454545454545
 40
0.4772727272727273
 40
0.5
 40
0.5227272727272727
 40
0.5454545454545454
 40
0.5681818181818182
 40
0.5909090909090909
 40
0.6136363636363636
 40
0.6363636363636364
 40
0.6590909090909091
 40
0.6818181818181818
 40
0.7045454545454546
 40
0.7272727272727273
 40
0.75
 40
0.7727272727272727
 40
0.7954545454545454
 40
0.8181818181818182
 40
0.8409090909090909
 40
0.8636363636363636
 40
0.8863636363636364
 40
0.9090909090909091
 40
0.9318181818181818
 40
0.9545454545454546
 40
0.9772727272727273
 40
1.0
 40
1.0
 40
1.0
 40
1.0
 10
178.0480000000092105
 20
94.2080000000048727
 30
0.0
 10
171.2500000000010516
 20
100.7500000000006253
 30
0.0
 10
165.7500000000010232
 20
107.0000000000006679
 30
0.0
 10
161.8000000000072021
 20
111.8000000000049852
 30
0.0
 10
159.000000000007077
 20
117.0000000000052154
 30
0.0
 10
156.0000000000069633
 20
123.0000000000054854
 30
0.0
 10
154.0000000000068781
 20
127.8000000000056957
 30
0.0
 10
152.5000000000009379
 20
134.7500000000008242
 30
0.0
 10
151.5000000000009379
 20
143.2500000000008811
 30
0.0
 10
151.2500000000009379
 20
148.7500000000009379
 30
0.0
 10
150.7500000000009379
 20
156.0000000000009663
 30
0.0
 10
150.7500000000009379
 20
163.7500000000010232
 30
0.0
 10
152.5000000000009379
 20
168.7500000000010516
 30
0.0
 10
153.7500000000009663
 20
176.5000000000011084
 30
0.0
 10
155.7500000000009663
 20
179.0000000000011084
 30
0.0
 10
159.68750000000108
 20
192.8125000000013074
 30
0.0
 10
163.4375000000011084
 20
199.3750000000013358
 30
0.0
 10
168.7500000000011369
 20
207.5000000000013927
 30
0.0
 10
173.7500000000011653
 20
215.9375000000014495
 30
0.0
 10
180.9375000000012221
 20
223.7500000000015064
 30
0.0
 10
186.5625000000012506
 20
229.0625000000015348
 30
0.0
 10
195.0000000000013074
 20
237.5000000000015916
 30
0.0
 10
204.0625000000013642
 20
244.0625000000016485
 30
0.0
 10
210.6250000000014211
 20
248.1250000000016769
 30
0.0
 10
217.5000000000014779
 20
254.0625000000017053
 30
0.0
 10
225.9375000000015348
 20
256.8750000000017053
 30
0.0
 10
233.7500000000015632
 20
260.3125000000017621
 30
0.0
 10
241.87500000000162
 20
265.0000000000017621
 30
0.0
 10
250.9375000000017053
 20
267.812500000001819
 30
0.0
 10
260.9375000000017621
 20
270.937500000001819
 30
0.0
 10
270.937500000001819
 20
273.750000000001819
 30
0.0
 10
280.0000000000018758
 20
276.2500000000018758
 30
0.0
 10
291.2500000000019895
 20
278.1250000000018758
 30
0.0
 10
300.9375000000020464
 20
279.6875000000018758
 30
0.0
 10
311.5625000000021032
 20
280.6250000000018758
 30
0.0
 10
321.4336000000031959
 20
283.0336000000028207
 30
0.0
 10
333.7500000000022737
 20
290.3125000000019327
 30
0.0
 10
346.013302784005873
 20
297.6613662720050684
 30
0.0
 10
374.2996889600063923
 20
314.6063544320053893
 30
0.0
 10
415.2428068864085731
 20
339.2218857472070113
 30
0.0
 10
457.7495613440122497
 20
364.7031214080097357
 30
0.0
 10
488.787410944013061
 20
383.3258311680102111
 30
0.0
 10
498.1155430400132786
 20
388.8958668800103737
 30
0.0
 10
515.1611944960137635
 20
399.1299686400106452
 30
0.0
 10
531.6364206080141912
 20
409.0285260800109199
 30
0.0
 10
539.1526133760144148
 20
413.5248199680110588
 30
0.0
 10
545.500000000003979
 20
418.0000000000030127
 30
0.0
  0
LINE
  5
63
100
AcDbEntity
100
AcDbLine
  8
1
 62
256
370
200
  6
ByLayer
 10
545.6370073600164687
 20
417.8785075200126471
 30
0.0
 11
176.2656256000094288
 21
95.8922752000051304
 31
0.0
  0
MTEXT
  5
64
100
AcDbEntity
100
AcDbMText
  8
1
 62
256
370
100
  6
ByLayer
 10
382.2326660156461458
 20
294.4946289062663141
 30
0.0
 40
18.0
 41
100.0
 71
5
 72
2
  1
0
  7
normal
 50
0.0
 73
0
 44
1.0
  0
MTEXT
  5
65
100
AcDbEntity
100
AcDbMText
  8
1
 62
256
370
100
  6
ByLayer
 10
512.5999450683879104
 20
264.6446228027491543
 30
0.0
 40
18.0
 41
100.0
 71
5
 72
2
  1
0.4
  7
normal
 50
0.0
 73
0
 44
1.0
  0
MTEXT
  5
66
100
AcDbEntity
100
AcDbMText
  8
1
 62
256
370
100
  6
ByLayer
 10
540.0180816650691895
 20
319.480895996111542
 30
0.0
 40
18.0
 41
100.0
 71
5
 72
2
  1
0.5
  7
normal
 50
0.0
 73
0
 44
1.0
  0
MTEXT
  5
67
100
AcDbEntity
100
AcDbMText
  8
1
 62
256
370
100
  6
ByLayer
 10
240.80276489259154
 20
250.3395080566545801
 30
0.0
 40
18.0
 41
100.0
 71
5
 72
2
  1
0.5
  7
normal
 50
0.0
 73
0
 44
1.0
  0
MTEXT
  5
68
100
AcDbEntity
100
AcDbMText
  8
1
 62
256
370
100
  6
ByLayer
 10
277.7576446533357739
 20
72.7176666259806126
 30
0.0
 40
18.0
 41
100.0
 71
5
 72
2
  1
1.5
  7
normal
 50
0.0
 73
0
 44
1.0
  0
MTEXT
  5
69
100
AcDbEntity
100
AcDbMText
  8
1
 62
256
370
100
  6
ByLayer
 10
505.4473876953406943
 20
493.5264587402618872
 30
0.0
 40
18.0
 41
100.0
 71
5
 72
2
  1
1.5
  7
normal
 50
0.0
 73
0
 44
1.0
  0
MTEXT
  5
6A
100
AcDbEntity
100
AcDbMText
  8
1
 62
256
370
100
  6
ByLayer
 10
543.5943603515928544
 20
469.6846008301043298
 30
0.0
 40
18.0
 41
100.0
 71
5
 72
2
  1
2.5
  7
normal
 50
0.0
 73
0
 44
1.0
  0
MTEXT
  5
6B
100
AcDbEntity
100
AcDbMText
  8
1
 62
256
370
100
  6
ByLayer
 10
548.3627319336243318
 20
355.2436828613479065
 30
0.0
 40
18.0
 41
100.0
 71
5
 72
2
  1
2
  7
normal
 50
0.0
 73
0
 44
1.0
  0
MTEXT
  5
6C
100
AcDbEntity
100
AcDbMText
  8
1
 62
256
370
100
  6
ByLayer
 10
554.3231964111637353
 20
509.0236663818643024
 30
0.0
 40
18.0
 41
100.0
 71
5
 72
2
  1
A
  7
normal
 50
0.0
 73
0
 44
1.0
  0
MTEXT
  5
6D
100
AcDbEntity
100
AcDbMText
  8
1
 62
256
370
100
  6
ByLayer
 10
680.6850433349989089
 20
281.3339233398594388
 30
0.0
 40
18.0
 41
100.0
 71
5
 72
2
  1
X
  7
normal
 50
0.0
 73
0
 44
1.0
  0
MTEXT
  5
6E
100
AcDbEntity
100
AcDbMText
  8
1
 62
256
370
100
  6
ByLayer
 10
377.8934478759976514
 20
475.6450653076437334
 30
0.0
 40
18.0
 41
100.0
 71
5
 72
2
  1
Y
  7
normal
 50
0.0
 73
0
 44
1.0
  0
MTEXT
  5
6F
100
AcDbEntity
100
AcDbMText
  8
1
 62
256
370
100
  6
ByLayer
 10
649.6906280517940786
 20
442.2664642334231075
 30
0.0
 40
18.0
 41
100.0
 71
5
 72
2
  1
M1
  7
normal
 50
0.0
 73
0
 44
1.0
  0
MTEXT
  5
70
100
AcDbEntity
100
AcDbMText
  8
1
 62
256
370
100
  6
ByLayer
 10
599.6227264404631114
 20
308.7520599365406611
 30
0.0
 40
18.0
 41
100.0
 71
5
 72
2
  1
M2
  7
normal
 50
0.0
 73
0
 44
1.0
  0
MTEXT
  5
71
100
AcDbEntity
100
AcDbMText
  8
1
 62
256
370
100
  6
ByLayer
 10
474.4529724121358072
 20
306.3678741455249224
 30
0.0
 40
18.0
 41
100.0
 71
5
 72
2
  1
M3
  7
normal
 50
0.0
 73
0
 44
1.0
  0
MTEXT
  5
72
100
AcDbEntity
100
AcDbMText
  8
1
 62
256
370
100
  6
ByLayer
 10
320.6729888916194682
 20
305.1757812500169962
 30
0.0
 40
18.0
 41
100.0
 71
5
 72
2
  1
M4
  7
normal
 50
0.0
 73
0
 44
1.0
  0
MTEXT
  5
73
100
AcDbEntity
100
AcDbMText
  8
1
 62
256
370
100
  6
ByLayer
 10
123.9776611328194065
 20
162.1246337890715381
 30
0.0
 40
18.0
 41
100.0
 71
5
 72
2
  1
M5
  7
normal
 50
0.0
 73
0
 44
1.0
  0
MTEXT
  5
74
100
AcDbEntity
100
AcDbMText
  8
1
 62
256
370
100
  6
ByLayer
 10
157.3562622070400323
 20
83.4465026855515219
 30
0.0
 40
18.0
 41
100.0
 71
5
 72
2
  1
M6
  7
normal
 50
0.0
 73
0
 44
1.0
  0
MTEXT
  5
75
100
AcDbEntity
100
AcDbMText
  8
1
 62
256
370
100
  6
ByLayer
 10
313.5204315185721953
 20
123.9776611328194065
 30
0.0
 40
18.0
 41
100.0
 71
5
 72
2
  1
M7
  7
normal
 50
0.0
 73
0
 44
1.0
  0
MTEXT
  5
76
100
AcDbEntity
100
AcDbMText
  8
1
 62
256
370
100
  6
ByLayer
 10
166.8930053711030439
 20
163.3167266845794074
 30
0.0
 40
18.0
 41
100.0
 71
5
 72
2
  1
1
  7
normal
 50
0.0
 73
0
 44
1.0
  0
MTEXT
  5
77
100
AcDbEntity
100
AcDbMText
  8
1
 62
256
370
100
  6
ByLayer
 10
561.4757537842109514
 20
411.2720489502182204
 30
0.0
 40
18.0
 41
100.0
 71
5
 72
2
  1
3
  7
normal
 50
0.0
 73
0
 44
1.0
  0
MTEXT
  5
78
100
AcDbEntity
100
AcDbMText
  8
1
 62
256
370
100
  6
ByLayer
 10
545.9785461426085931
 20
431.5376281738521698
 30
0.0
 40
18.0
 41
100.0
 71
5
 72
2
  1
F
  7
normal
 50
0.0
 73
0
 44
1.0
  0
MTEXT
  5
79
100
AcDbEntity
100
AcDbMText
  8
1
 62
256
370
100
  6
ByLayer
 10
227.689743042004892
 20
156.1641693115321345
 30
0.0
 40
18.0
 41
100.0
 71
5
 72
2
  1
F
  7
normal
 50
0.0
 73
0
 44
1.0
  0
MTEXT
  5
7A
100
AcDbEntity
100
AcDbMText
  8
1
 62
256
370
100
  6
ByLayer
 10
609.1594696045261799
 20
396.9669342041236746
 30
0.0
 40
14.0
 41
100.0
 71
5
 72
2
  1
S=1
  7
normal
 50
0.0
 73
0
 44
1.0
  0
MTEXT
  5
7B
100
AcDbEntity
100
AcDbMText
  8
1
 62
256
370
100
  6
ByLayer
 10
249.5117187500140119
 20
95.7031250000053717
 30
0.0
 40
18.0
 41
100.0
 71
5
 72
2
  1
2.5
  7
normal
 50
0.0
 73
0
 44
1.0
  0
MTEXT
  5
7C
100
AcDbEntity
100
AcDbMText
  8
1
 62
256
370
100
  6
ByLayer
 10
572.7539062500324007
 20
264.1601562500149498
 30
0.0
 40
18.0
 41
100.0
 71
5
 72
2
  1
0.6
  7
normal
 50
0.0
 73
0
 44
1.0
  0
MTEXT
  5
7D
100
AcDbEntity
100
AcDbMText
  8
1
 62
256
370
100
  6
ByLayer
 10
450.1953125000254659
 20
263.183593750014893
 30
0.0
 40
18.0
 41
100.0
 71
5
 72
2
  1
0.2
  7
normal
 50
0.0
 73
0
 44
1.0
  0
MTEXT
  5
7E
100
AcDbEntity
100
AcDbMText
  8
1
 62
256
370
100
  6
ByLayer
 10
325.6835937500184173
 20
264.6484375000149498
 30
0.0
 40
18.0
 41
100.0
 71
5
 72
2
  1
0.2
  7
normal
 50
0.0
 73
0
 44
1.0
  0
MTEXT
  5
7F
100
AcDbEntity
100
AcDbMText
  8
1
 62
256
370
100
  6
ByLayer
 10
205.0781250000115961
 20
264.6484375000149498
 30
0.0
 40
18.0
 41
100.0
 71
5
 72
2
  1
0.6
  7
normal
 50
0.0
 73
0
 44
1.0
  0
MTEXT
  5
80
100
AcDbEntity
100
AcDbMText
  8
1
 62
256
370
100
  6
ByLayer
 10
144.042968750008157
 20
265.6250000000150067
 30
0.0
 40
18.0
 41
100.0
 71
5
 72
2
  1
0.8
  7
normal
 50
0.0
 73
0
 44
1.0
  0
MTEXT
  5
81
100
AcDbEntity
100
AcDbMText
  8
1
 62
256
370
100
  6
ByLayer
 10
235.5575561523570798
 20
207.9010009765742666
 30
0.0
 40
18.0
 41
100.0
 71
5
 72
2
  1
2
  7
normal
 50
0.0
 73
0
 44
1.0
  0
LINE
  5
82
100
AcDbEntity
100
AcDbLine
  8
1
 62
256
370
200
  6
ByLayer
 10
235.1562500000134435
 20
185.5468750000106297
 30
0.0
 11
235.5468750000095213
 21
194.9218750000078728
 31
0.0
  0
MTEXT
  5
83
100
AcDbEntity
100
AcDbMText
  8
1
 62
256
370
100
  6
ByLayer
 10
268.5546875000154046
 20
305.9387207031425646
 30
0.0
 40
18.0
 41
100.0
 71
5
 72
2
  1
0.4
  7
normal
 50
0.0
 73
0
 44
1.0
  0
LINE
  5
84
100
AcDbEntity
100
AcDbLine
  8
1
 62
256
370
200
  6
ByLayer
 10
544.0000000000312639
 20
368.6000000000212253
 30
0.0
 11
544.1406250000219416
 21
377.343750000015234
 31
0.0
  0
LINE
  5
85
100
AcDbEntity
100
AcDbLine
  8
1
 62
256
370
50
  6
ByLayer
 10
233.7500000000140119
 20
170.5000000000102318
 30
0.0
 11
234.0000000000140403
 21
166.0000000000099476
 31
0.0
  0
ENDSEC
  0
SECTION
  2
OBJECTS
  0
DICTIONARY
  5
C
100
AcDbDictionary
280
0
281
1
  3
ACAD_GROUP
350
D
  3
ACAD_LAYOUT
350
1A
  3
ACAD_MLINESTYLE
350
17
  3
ACAD_PLOTSETTINGS
350
19
  3
ACAD_PLOTSTYLENAME
350
E
  3
AcDbVariableDictionary
350
86
  0
DICTIONARY
  5
D
100
AcDbDictionary
280
0
281
1
  0
ACDBDICTIONARYWDFLT
  5
E
100
AcDbDictionary
281
1
  3
Normal
350
F
100
AcDbDictionaryWithDefault
340
F
  0
ACDBPLACEHOLDER
  5
F
  0
DICTIONARY
  5
17
100
AcDbDictionary
280
0
281
1
  3
Standard
350
18
  0
MLINESTYLE
  5
18
100
AcDbMlineStyle
  2
STANDARD
 70
0
  3

 62
256
 51
90.0
 52
90.0
 71
2
 49
0.5
 62
256
  6
BYLAYER
 49
-0.5
 62
256
  6
BYLAYER
  0
DICTIONARY
  5
19
100
AcDbDictionary
280
0
281
1
  0
DICTIONARY
  5
1A
100
AcDbDictionary
281
1
  3
Layout1
350
1E
  3
Layout2
350
26
  3
Model
350
22
  0
LAYOUT
  5
1E
100
AcDbPlotSettings
  1

  2
C:\Program Files\AutoCAD 2002\plotters\DWF ePlot (optimized for plotting).pc3
  4

  6

 40
0.0
 41
0.0
 42
0.0
 43
0.0
 44
0.0
 45
0.0
 46
0.0
 47
0.0
 48
0.0
 49
0.0
140
0.0
141
0.0
142
1.0
143
1.0
 70
688
 72
0
 73
0
 74
5
  7

 75
16
147
1.0
148
0.0
149
0.0
100
AcDbLayout
  1
Layout1
 70
1
 71
1
 10
0.0
 20
0.0
 11
420.0
 21
297.0
 12
0.0
 22
0.0
 32
0.0
 14
100000000000000000000.0
 24
100000000000000000000.0
 34
100000000000000000000.0
 15
-100000000000000000000.0
 25
-100000000000000000000.0
 35
-100000000000000000000.0
146
0.0
 13
0.0
 23
0.0
 33
0.0
 16
1.0
 26
0.0
 36
0.0
 17
0.0
 27
1.0
 37
0.0
 76
0
330
1B
  0
LAYOUT
  5
22
100
AcDbPlotSettings
  1

  2
C:\Program Files\AutoCAD 2002\plotters\DWF ePlot (optimized for plotting).pc3
  4

  6

 40
0.0
 41
0.0
 42
0.0
 43
0.0
 44
0.0
 45
0.0
 46
0.0
 47
0.0
 48
0.0
 49
0.0
140
0.0
141
0.0
142
1.0
143
1.0
 70
1712
 72
0
 73
0
 74
0
  7

 75
0
147
1.0
148
0.0
149
0.0
100
AcDbLayout
  1
Model
 70
1
 71
0
 10
0.0
 20
0.0
 11
12.0
 21
9.0
 12
0.0
 22
0.0
 32
0.0
 14
0.0
 24
0.0
 34
0.0
 15
0.0
 25
0.0
 35
0.0
146
0.0
 13
0.0
 23
0.0
 33
0.0
 16
1.0
 26
0.0
 36
0.0
 17
0.0
 27
1.0
 37
0.0
 76
0
330
1F
  0
LAYOUT
  5
26
100
AcDbPlotSettings
  1

  2
C:\Program Files\AutoCAD 2002\plotters\DWF ePlot (optimized for plotting).pc3
  4

  6

 40
0.0
 41
0.0
 42
0.0
 43
0.0
 44
0.0
 45
0.0
 46
0.0
 47
0.0
 48
0.0
 49
0.0
140
0.0
141
0.0
142
1.0
143
1.0
 70
688
 72
0
 73
0
 74
5
  7

 75
16
147
1.0
148
0.0
149
0.0
100
AcDbLayout
  1
Layout2
 70
1
 71
2
 10
0.0
 20
0.0
 11
12.0
 21
9.0
 12
0.0
 22
0.0
 32
0.0
 14
0.0
 24
0.0
 34
0.0
 15
0.0
 25
0.0
 35
0.0
146
0.0
 13
0.0
 23
0.0
 33
0.0
 16
1.0
 26
0.0
 36
0.0
 17
0.0
 27
1.0
 37
0.0
 76
0
330
23
  0
DICTIONARY
  5
86
100
AcDbDictionary
281
1
  3
DIMASSOC
350
88
  3
HIDETEXT
350
87
  0
DICTIONARYVAR
  5
87
100
DictionaryVariables
280
0
  1
2
  0
DICTIONARYVAR
  5
88
100
DictionaryVariables
280
0
  1
1
  0
IMAGEDEF
  5
45
100
AcDbRasterImageDef
 90
0
  1
/Data/documents/TeX/Posobie_Phisics/qcad/kornu.jpeg
 10
638.0
 20
492.0
 11
1.0
 21
1.0
280
1
281
0
  0
ENDSEC
  0
EOF
