999
dxflib 2.0.4.8
  0
SECTION
  2
HEADER
  9
$ACADVER
  1
AC1015
  9
$HANDSEED
  5
FFFF
  9
$DIMASZ
 40
2.5
  9
$DIMGAP
 40
0.625
  9
$DIMEXO
 40
0.625
  9
$INSUNITS
 70
4
  9
$DIMTXT
 40
2.5
  9
$PLIMMAX
 10
210.0
 20
297.0
  9
$PLIMMIN
 10
0.0
 20
0.0
  9
$DIMEXE
 40
1.25
  0
ENDSEC
  0
SECTION
  2
TABLES
  0
TABLE
  2
VPORT
  5
8
100
AcDbSymbolTable
 70
1
  0
VPORT
  5
30
100
AcDbSymbolTableRecord
100
AcDbViewportTableRecord
  2
*Active
 70
0
 10
0.0
 20
0.0
 11
1.0
 21
1.0
 12
286.3055555555554861
 22
148.5
 13
0.0
 23
0.0
 14
10.0
 24
10.0
 15
10.0
 25
10.0
 16
0.0
 26
0.0
 36
1.0
 17
0.0
 27
0.0
 37
0.0
 40
297.0
 41
1.92798353909465
 42
50.0
 43
0.0
 44
0.0
 50
0.0
 51
0.0
 71
0
 72
100
 73
1
 74
3
 75
1
 76
1
 77
0
 78
0
281
0
 65
1
110
0.0
120
0.0
130
0.0
111
1.0
121
0.0
131
0.0
112
0.0
122
1.0
132
0.0
 79
0
146
0.0
  0
ENDTAB
  0
TABLE
  2
LTYPE
  5
5
100
AcDbSymbolTable
 70
21
  0
LTYPE
  5
14
100
AcDbSymbolTableRecord
100
AcDbLinetypeTableRecord
  2
ByBlock
 70
0
  3

 72
65
 73
0
 40
0.0
  0
LTYPE
  5
15
100
AcDbSymbolTableRecord
100
AcDbLinetypeTableRecord
  2
ByLayer
 70
0
  3

 72
65
 73
0
 40
0.0
  0
LTYPE
  5
16
100
AcDbSymbolTableRecord
100
AcDbLinetypeTableRecord
  2
CONTINUOUS
 70
0
  3
Solid line
 72
65
 73
0
 40
0.0
  0
LTYPE
  5
31
100
AcDbSymbolTableRecord
100
AcDbLinetypeTableRecord
  2
DOT
 70
0
  3
Dot . . . . . . . . . . . . . . . . . . . . . .
 72
65
 73
2
 40
6.3499999999999996
 49
0.0
 74
0
 49
-6.3499999999999996
 74
0
  0
LTYPE
  5
32
100
AcDbSymbolTableRecord
100
AcDbLinetypeTableRecord
  2
DOT2
 70
0
  3
Dot (.5x) .....................................
 72
65
 73
2
 40
3.1749999999999998
 49
0.0
 74
0
 49
-3.1749999999999998
 74
0
  0
LTYPE
  5
33
100
AcDbSymbolTableRecord
100
AcDbLinetypeTableRecord
  2
DOTX2
 70
0
  3
Dot (2x) .  .  .  .  .  .  .  .  .  .  .  .  .
 72
65
 73
2
 40
12.6999999999999993
 49
0.0
 74
0
 49
-12.6999999999999993
 74
0
  0
LTYPE
  5
34
100
AcDbSymbolTableRecord
100
AcDbLinetypeTableRecord
  2
DASHED
 70
0
  3
Dashed __ __ __ __ __ __ __ __ __ __ __ __ __ _
 72
65
 73
2
 40
19.0500000000000007
 49
12.6999999999999993
 74
0
 49
-6.3499999999999996
 74
0
  0
LTYPE
  5
35
100
AcDbSymbolTableRecord
100
AcDbLinetypeTableRecord
  2
DASHED2
 70
0
  3
Dashed (.5x) _ _ _ _ _ _ _ _ _ _ _ _ _ _ _ _ _
 72
65
 73
2
 40
9.5250000000000004
 49
6.3499999999999996
 74
0
 49
-3.1749999999999998
 74
0
  0
LTYPE
  5
36
100
AcDbSymbolTableRecord
100
AcDbLinetypeTableRecord
  2
DASHEDX2
 70
0
  3
Dashed (2x) ____  ____  ____  ____  ____  ___
 72
65
 73
2
 40
38.1000000000000014
 49
25.3999999999999986
 74
0
 49
-12.6999999999999993
 74
0
  0
LTYPE
  5
37
100
AcDbSymbolTableRecord
100
AcDbLinetypeTableRecord
  2
DASHDOT
 70
0
  3
Dash dot __ . __ . __ . __ . __ . __ . __ . __
 72
65
 73
4
 40
25.3999999999999986
 49
12.6999999999999993
 74
0
 49
-6.3499999999999996
 74
0
 49
0.0
 74
0
 49
-6.3499999999999996
 74
0
  0
LTYPE
  5
38
100
AcDbSymbolTableRecord
100
AcDbLinetypeTableRecord
  2
DASHDOT2
 70
0
  3
Dash dot (.5x) _._._._._._._._._._._._._._._.
 72
65
 73
4
 40
12.6999999999999993
 49
6.3499999999999996
 74
0
 49
-3.1749999999999998
 74
0
 49
0.0
 74
0
 49
-3.1749999999999998
 74
0
  0
LTYPE
  5
39
100
AcDbSymbolTableRecord
100
AcDbLinetypeTableRecord
  2
DASHDOTX2
 70
0
  3
Dash dot (2x) ____  .  ____  .  ____  .  ___
 72
65
 73
4
 40
50.7999999999999972
 49
25.3999999999999986
 74
0
 49
-12.6999999999999993
 74
0
 49
0.0
 74
0
 49
-12.6999999999999993
 74
0
  0
LTYPE
  5
3A
100
AcDbSymbolTableRecord
100
AcDbLinetypeTableRecord
  2
DIVIDE
 70
0
  3
Divide ____ . . ____ . . ____ . . ____ . . ____
 72
65
 73
6
 40
31.75
 49
12.6999999999999993
 74
0
 49
-6.3499999999999996
 74
0
 49
0.0
 74
0
 49
-6.3499999999999996
 74
0
 49
0.0
 74
0
 49
-6.3499999999999996
 74
0
  0
LTYPE
  5
3B
100
AcDbSymbolTableRecord
100
AcDbLinetypeTableRecord
  2
DIVIDE2
 70
0
  3
Divide (.5x) __..__..__..__..__..__..__..__.._
 72
65
 73
6
 40
15.875
 49
6.3499999999999996
 74
0
 49
-3.1749999999999998
 74
0
 49
0.0
 74
0
 49
-3.1749999999999998
 74
0
 49
0.0
 74
0
 49
-3.1749999999999998
 74
0
  0
LTYPE
  5
3C
100
AcDbSymbolTableRecord
100
AcDbLinetypeTableRecord
  2
DIVIDEX2
 70
0
  3
Divide (2x) ________  .  .  ________  .  .  _
 72
65
 73
6
 40
63.5
 49
25.3999999999999986
 74
0
 49
-12.6999999999999993
 74
0
 49
0.0
 74
0
 49
-12.6999999999999993
 74
0
 49
0.0
 74
0
 49
-12.6999999999999993
 74
0
  0
LTYPE
  5
3D
100
AcDbSymbolTableRecord
100
AcDbLinetypeTableRecord
  2
CENTER
 70
0
  3
Center ____ _ ____ _ ____ _ ____ _ ____ _ ____
 72
65
 73
4
 40
50.7999999999999972
 49
31.75
 74
0
 49
-6.3499999999999996
 74
0
 49
6.3499999999999996
 74
0
 49
-6.3499999999999996
 74
0
  0
LTYPE
  5
3E
100
AcDbSymbolTableRecord
100
AcDbLinetypeTableRecord
  2
CENTER2
 70
0
  3
Center (.5x) ___ _ ___ _ ___ _ ___ _ ___ _ ___
 72
65
 73
4
 40
28.5749999999999993
 49
19.0500000000000007
 74
0
 49
-3.1749999999999998
 74
0
 49
3.1749999999999998
 74
0
 49
-3.1749999999999998
 74
0
  0
LTYPE
  5
3F
100
AcDbSymbolTableRecord
100
AcDbLinetypeTableRecord
  2
CENTERX2
 70
0
  3
Center (2x) ________  __  ________  __  _____
 72
65
 73
4
 40
101.5999999999999943
 49
63.5
 74
0
 49
-12.6999999999999993
 74
0
 49
12.6999999999999993
 74
0
 49
-12.6999999999999993
 74
0
  0
LTYPE
  5
40
100
AcDbSymbolTableRecord
100
AcDbLinetypeTableRecord
  2
BORDER
 70
0
  3
Border __ __ . __ __ . __ __ . __ __ . __ __ .
 72
65
 73
6
 40
44.4500000000000028
 49
12.6999999999999993
 74
0
 49
-6.3499999999999996
 74
0
 49
12.6999999999999993
 74
0
 49
-6.3499999999999996
 74
0
 49
0.0
 74
0
 49
-6.3499999999999996
 74
0
  0
LTYPE
  5
41
100
AcDbSymbolTableRecord
100
AcDbLinetypeTableRecord
  2
BORDER2
 70
0
  3
Border (.5x) __.__.__.__.__.__.__.__.__.__.__.
 72
65
 73
6
 40
22.2250000000000014
 49
6.3499999999999996
 74
0
 49
-3.1749999999999998
 74
0
 49
6.3499999999999996
 74
0
 49
-3.1749999999999998
 74
0
 49
0.0
 74
0
 49
-3.1749999999999998
 74
0
  0
LTYPE
  5
42
100
AcDbSymbolTableRecord
100
AcDbLinetypeTableRecord
  2
BORDERX2
 70
0
  3
Border (2x) ____  ____  .  ____  ____  .  ___
 72
65
 73
6
 40
88.9000000000000057
 49
25.3999999999999986
 74
0
 49
-12.6999999999999993
 74
0
 49
25.3999999999999986
 74
0
 49
-12.6999999999999993
 74
0
 49
0.0
 74
0
 49
-12.6999999999999993
 74
0
  0
ENDTAB
  0
TABLE
  2
LAYER
  5
2
100
AcDbSymbolTable
 70
1
  0
LAYER
  5
10
100
AcDbSymbolTableRecord
100
AcDbLayerTableRecord
  2
0
 70
0
 62
7
  6
CONTINUOUS
370
0
390
F
  0
ENDTAB
  0
TABLE
  2
STYLE
  5
3
100
AcDbSymbolTable
 70
1
  0
STYLE
  5
11
100
AcDbSymbolTableRecord
100
AcDbTextStyleTableRecord
  2
Standard
 70
0
 40
0.0
 41
0.75
 50
0.0
 71
0
 42
2.5
  3
txt
  4

  0
ENDTAB
  0
TABLE
  2
VIEW
  5
6
100
AcDbSymbolTable
 70
0
  0
ENDTAB
  0
TABLE
  2
UCS
  5
7
100
AcDbSymbolTable
 70
0
  0
ENDTAB
  0
TABLE
  2
APPID
  5
9
100
AcDbSymbolTable
 70
1
  0
APPID
  5
12
100
AcDbSymbolTableRecord
100
AcDbRegAppTableRecord
  2
ACAD
 70
0
  0
ENDTAB
  0
TABLE
  2
DIMSTYLE
  5
A
100
AcDbSymbolTable
 70
1
100
AcDbDimStyleTable
 71
0
  0
DIMSTYLE
105
27
100
AcDbSymbolTableRecord
100
AcDbDimStyleTableRecord
  2
Standard
 41
2.5
 42
0.625
 43
3.75
 44
1.25
 70
0
 73
0
 74
0
 77
1
 78
8
140
2.5
141
2.5
143
0.03937007874016
147
0.625
171
3
172
1
271
2
272
2
274
3
278
44
283
0
284
8
340
11
  0
ENDTAB
  0
TABLE
  2
BLOCK_RECORD
  5
1
100
AcDbSymbolTable
 70
1
  0
BLOCK_RECORD
  5
1F
100
AcDbSymbolTableRecord
100
AcDbBlockTableRecord
  2
*Model_Space
340
22
  0
BLOCK_RECORD
  5
1B
100
AcDbSymbolTableRecord
100
AcDbBlockTableRecord
  2
*Paper_Space
340
1E
  0
BLOCK_RECORD
  5
23
100
AcDbSymbolTableRecord
100
AcDbBlockTableRecord
  2
*Paper_Space0
340
26
  0
ENDTAB
  0
ENDSEC
  0
SECTION
  2
BLOCKS
  0
BLOCK
  5
20
100
AcDbEntity
  8
0
100
AcDbBlockBegin
  2
*Model_Space
 70
0
 10
0.0
 20
0.0
 30
0.0
  3
*Model_Space
  1

  0
ENDBLK
  5
21
100
AcDbEntity
  8
0
100
AcDbBlockEnd
  0
BLOCK
  5
1C
100
AcDbEntity
 67
1
  8
0
100
AcDbBlockBegin
  2
*Paper_Space
 70
0
 10
0.0
 20
0.0
 30
0.0
  3
*Paper_Space
  1

  0
ENDBLK
  5
1D
100
AcDbEntity
 67
1
  8
0
100
AcDbBlockEnd
  0
BLOCK
  5
24
100
AcDbEntity
  8
0
100
AcDbBlockBegin
  2
*Paper_Space0
 70
0
 10
0.0
 20
0.0
 30
0.0
  3
*Paper_Space0
  1

  0
ENDBLK
  5
25
100
AcDbEntity
  8
0
100
AcDbBlockEnd
  0
ENDSEC
  0
SECTION
  2
ENTITIES
  0
HATCH
  5
43
  8
0
 62
7
370
9
  6
ByLayer
100
AcDbEntity
100
AcDbHatch
 10
0.0
 20
0.0
 30
0.0
210
0.0
220
0.0
230
1.0
  2
kerpele
 70
0
 71
0
 91
1
 92
1
 93
4
 72
1
 10
40.0424960000007317
 20
200.0814080000036483
 11
46.0031262720009124
 21
200.0814080000036483
 72
1
 10
46.0031262720009124
 20
200.0814080000036483
 11
46.0031262720009124
 21
100.0257617920019868
 72
1
 10
46.0031262720009124
 20
100.0257617920019868
 11
40.0424960000007317
 21
100.0257617920019868
 72
1
 10
40.0424960000007317
 20
100.0257617920019868
 11
40.0424960000007317
 21
200.0814080000036483
 97
0
 75
0
 76
1
 52
0.0
 41
0.5
 77
0
 78
1
 53
45.0
 43
0.0
 44
0.0
 45
-0.0883883476483184
 46
0.0883883476483185
 79
0
 98
0
  0
HATCH
  5
44
  8
0
 62
7
370
9
  6
ByLayer
100
AcDbEntity
100
AcDbHatch
 10
0.0
 20
0.0
 30
0.0
210
0.0
220
0.0
230
1.0
  2
kerpele
 70
0
 71
0
 91
1
 92
1
 93
4
 72
1
 10
-5.955911680000062
 20
199.9844147200020927
 11
-0.0429496729600006
 21
199.9844147200020927
 72
1
 10
-0.0429496729600006
 20
199.9844147200020927
 11
-0.0429496729600006
 21
100.0083134873613631
 72
1
 10
-0.0429496729600006
 20
100.0083134873613631
 11
-5.955911680000062
 21
100.0083134873613631
 72
1
 10
-5.955911680000062
 20
100.0083134873613631
 11
-5.955911680000062
 21
199.9844147200020927
 97
0
 75
0
 76
1
 52
0.0
 41
0.5
 77
0
 78
1
 53
45.0
 43
0.0
 44
0.0
 45
-0.0883883476483184
 46
0.0883883476483185
 79
0
 98
0
  0
LINE
  5
45
100
AcDbEntity
100
AcDbLine
  8
0
 62
7
370
9
  6
ByLayer
 10
0.0
 20
100.0448000000000519
 30
0.0
 11
0.0000000000000061
 21
200.0448000000000661
 31
0.0
  0
LINE
  5
46
100
AcDbEntity
100
AcDbLine
  8
0
 62
7
370
9
  6
ByLayer
 10
39.9769600000000267
 20
100.0243200000000598
 30
0.0
 11
39.9769600000000338
 21
200.0243200000000456
 31
0.0
  0
LINE
  5
47
100
AcDbEntity
100
AcDbLine
  8
0
 62
7
370
9
  6
ByLayer
 10
0.0
 20
100.0000000000000711
 30
0.0
 11
-30.0
 21
100.0000000000000711
 31
0.0
  0
LINE
  5
48
100
AcDbEntity
100
AcDbLine
  8
0
 62
7
370
9
  6
ByLayer
 10
39.9947354603521816
 20
100.0418142322692461
 30
0.0
 11
69.9701712125955169
 21
100.0418142322692461
 31
0.0
  0
LINE
  5
49
100
AcDbEntity
100
AcDbLine
  8
0
 62
7
370
9
  6
ByLayer
 10
-0.0429496729600006
 20
199.9844147200020927
 30
0.0
 11
-0.0429496729600006
 21
100.0083134873613631
 31
0.0
  0
LINE
  5
4A
100
AcDbEntity
100
AcDbLine
  8
0
 62
7
370
9
  6
ByLayer
 10
-0.0429496729600006
 20
100.0083134873613631
 30
0.0
 11
-5.955911680000062
 21
100.0083134873613631
 31
0.0
  0
LINE
  5
4B
100
AcDbEntity
100
AcDbLine
  8
0
 62
7
370
9
  6
ByLayer
 10
46.0031262720009124
 20
100.0257617920019868
 30
0.0
 11
40.0424960000007317
 21
100.0257617920019868
 31
0.0
  0
LINE
  5
4C
100
AcDbEntity
100
AcDbLine
  8
0
 62
7
370
9
  6
ByLayer
 10
60.0624332800012084
 20
199.9424716800040187
 30
0.0
 11
69.9269120000002005
 21
100.1390080000002882
 31
0.0
  0
LINE
  5
4D
100
AcDbEntity
100
AcDbLine
  8
0
 62
7
370
9
  6
ByLayer
 10
40.0136601600008035
 20
199.9844147200040254
 30
0.0
 11
60.0624332800012084
 21
199.9844147200040254
 31
0.0
  0
LINE
  5
4E
100
AcDbEntity
100
AcDbLine
  8
0
 62
7
370
9
  6
ByLayer
 10
-30.0032000000000387
 20
100.044800000000123
 30
0.0
 11
-19.9229440000004523
 21
200.0158720000045491
 31
0.0
  0
LINE
  5
4F
100
AcDbEntity
100
AcDbLine
  8
0
 62
7
370
9
  6
ByLayer
 10
0.0
 20
200.0683008000045504
 30
0.0
 11
-19.9753728000004536
 21
200.0158720000045491
 31
0.0
  0
LEADER
  5
50
  8
0
 62
7
370
9
  6
ByLayer
100
AcDbEntity
100
AcDbLeader
  3
Standard
 71
1
 72
0
 73
3
 74
0
 75
0
 40
1.0
 41
10.0
 76
3
 10
-29.6000000000007475
 20
169.9200000000043076
 10
-69.4400000000017599
 20
169.9200000000043076
 10
-69.4400000000017599
 20
169.9200000000043076
  0
LEADER
  5
51
  8
0
 62
7
370
9
  6
ByLayer
100
AcDbEntity
100
AcDbLeader
  3
Standard
 71
1
 72
0
 73
3
 74
0
 75
0
 40
1.0
 41
10.0
 76
2
 10
-30.2400000000007658
 20
160.0000000000040359
 10
-69.7600000000017673
 20
160.0000000000040359
  0
LEADER
  5
52
  8
0
 62
7
370
9
  6
ByLayer
100
AcDbEntity
100
AcDbLeader
  3
Standard
 71
1
 72
0
 73
3
 74
0
 75
0
 40
1.0
 41
10.0
 76
2
 10
-30.5600000000007732
 20
149.7600000000037994
 10
-70.0800000000017747
 20
149.7600000000037994
  0
LEADER
  5
53
  8
0
 62
7
370
9
  6
ByLayer
100
AcDbEntity
100
AcDbLeader
  3
Standard
 71
1
 72
0
 73
3
 74
0
 75
0
 40
1.0
 41
10.0
 76
2
 10
-30.4000000000007908
 20
140.000000000003638
 10
-70.0800000000018173
 20
140.000000000003638
  0
LEADER
  5
54
  8
0
 62
7
370
9
  6
ByLayer
100
AcDbEntity
100
AcDbLeader
  3
Standard
 71
1
 72
0
 73
3
 74
0
 75
0
 40
1.0
 41
10.0
 76
2
 10
90.2400000000023397
 20
169.2800000000044065
 10
70.2400000000018281
 20
169.2800000000044065
  0
LEADER
  5
55
  8
0
 62
7
370
9
  6
ByLayer
100
AcDbEntity
100
AcDbLeader
  3
Standard
 71
1
 72
0
 73
3
 74
0
 75
0
 40
1.0
 41
10.0
 76
2
 10
90.4000000000023505
 20
154.2400000000040166
 10
70.0800000000018173
 20
154.2400000000040166
  0
LEADER
  5
56
  8
0
 62
7
370
9
  6
ByLayer
100
AcDbEntity
100
AcDbLeader
  3
Standard
 71
1
 72
0
 73
3
 74
0
 75
0
 40
1.0
 41
10.0
 76
2
 10
90.2400000000023397
 20
139.6800000000036448
 10
70.2400000000018281
 20
139.6800000000036448
  0
LEADER
  5
57
  8
0
 62
7
370
9
  6
ByLayer
100
AcDbEntity
100
AcDbLeader
  3
Standard
 71
1
 72
0
 73
3
 74
0
 75
0
 40
1.0
 41
10.0
 76
2
 10
0.0
 20
84.3750000000022595
 10
13.4375000000003588
 20
84.3750000000022595
  0
LEADER
  5
58
  8
0
 62
7
370
9
  6
ByLayer
100
AcDbEntity
100
AcDbLeader
  3
Standard
 71
1
 72
0
 73
3
 74
0
 75
0
 40
1.0
 41
10.0
 76
2
 10
40.6250000000010871
 20
84.3750000000022595
 10
10.9375000000002931
 20
84.3750000000022595
  0
MTEXT
  5
59
100
AcDbEntity
100
AcDbMText
  8
0
 62
7
370
9
  6
ByLayer
 10
20.0000000000005329
 20
93.4375000000025011
 30
0.0
 40
10.0
 41
100.0
 71
5
 72
0
  1
d
  7
normal
 50
0.0
 73
1
 44
1.0
  0
SPLINE
  5
5A
  8
0
 62
7
370
9
  6
ByLayer
100
AcDbEntity
100
AcDbSpline
 70
8
 71
3
 72
15
 73
11
 74
0
 40
0.0
 40
0.0
 40
0.0
 40
0.0
 40
0.125
 40
0.25
 40
0.375
 40
0.5
 40
0.625
 40
0.75
 40
0.875
 40
1.0
 40
1.0
 40
1.0
 40
1.0
 10
-76.2720461913881991
 20
59.1391886290166795
 30
0.0
 10
-74.8639841130667776
 20
56.8216242760951857
 30
0.0
 10
-74.951945043288859
 20
54.3147377647658089
 30
0.0
 10
-74.0723357410680023
 20
45.4746642774464434
 30
0.0
 10
-73.7426581745958458
 20
29.7968599183831913
 30
0.0
 10
-73.1135616016474899
 20
20.4673718153081623
 30
0.0
 10
-70.1517177945879666
 20
13.5051611090151695
 30
0.0
 10
-70.8969461600510158
 20
15.0137941415390124
 30
0.0
 10
-69.4000985177878249
 20
12.624692813335141
 30
0.0
 10
-68.5411050585878172
 20
11.4221019704550955
 30
0.0
 10
-66.7631002671928542
 20
10.3342726537241898
 30
0.0
  0
SPLINE
  5
5B
  8
0
 62
7
370
9
  6
ByLayer
100
AcDbEntity
100
AcDbSpline
 70
8
 71
3
 72
15
 73
11
 74
0
 40
0.0
 40
0.0
 40
0.0
 40
0.0
 40
0.125
 40
0.25
 40
0.375
 40
0.5
 40
0.625
 40
0.75
 40
0.875
 40
1.0
 40
1.0
 40
1.0
 40
1.0
 10
-76.7283864665865849
 20
59.1391886290166795
 30
0.0
 10
-78.1364485449080064
 20
56.8216242760951857
 30
0.0
 10
-78.0484876146859108
 20
54.3147377647658089
 30
0.0
 10
-78.9280969169067532
 20
45.4746642774464434
 30
0.0
 10
-79.2577744833789382
 20
29.7968599183831913
 30
0.0
 10
-79.8868710563272799
 20
20.4673718153081658
 30
0.0
 10
-82.8487148633868031
 20
13.5051611090151695
 30
0.0
 10
-82.1034864979237682
 20
15.0137941415390106
 30
0.0
 10
-83.6003341401869449
 20
12.624692813335141
 30
0.0
 10
-84.4593275993869668
 20
11.4221019704551008
 30
0.0
 10
-86.5367173811171853
 20
10.3694570258130234
 30
0.0
  0
SPLINE
  5
5C
  8
0
 62
7
370
9
  6
ByLayer
100
AcDbEntity
100
AcDbSpline
 70
8
 71
3
 72
15
 73
11
 74
0
 40
0.0
 40
0.0
 40
0.0
 40
0.0
 40
0.125
 40
0.25
 40
0.375
 40
0.5
 40
0.625
 40
0.75
 40
0.875
 40
1.0
 40
1.0
 40
1.0
 40
1.0
 10
-66.7490265183582494
 20
10.3413095281419629
 30
0.0
 10
-66.1297815695947833
 20
10.7916694908790323
 30
0.0
 10
-65.5949791138445164
 20
11.3264719466293027
 30
0.0
 10
-65.3135041371338332
 20
12.1708968767613079
 30
0.0
 10
-65.2009141464495912
 20
13.4656817696303808
 30
0.0
 10
-65.17276664877852
 20
14.7041716671573219
 30
0.0
 10
-65.0601766580942353
 20
16.280431536737062
 30
0.0
 10
-64.8349966767257229
 20
17.6878064202904035
 30
0.0
 10
-64.4690792070018404
 20
18.813706327133076
 30
0.0
 10
-64.2157517279622425
 20
19.2922137875412112
 30
0.0
 10
-64.1031617372779579
 20
19.3203612852122788
 30
0.0
  0
SPLINE
  5
5D
  8
0
 62
7
370
9
  6
ByLayer
100
AcDbEntity
100
AcDbSpline
 70
8
 71
3
 72
15
 73
11
 74
0
 40
0.0
 40
0.0
 40
0.0
 40
0.0
 40
0.125
 40
0.25
 40
0.375
 40
0.5
 40
0.625
 40
0.75
 40
0.875
 40
1.0
 40
1.0
 40
1.0
 40
1.0
 10
-61.4572969561976734
 20
10.3413095281419629
 30
0.0
 10
-62.0765419049611467
 20
10.791669490879034
 30
0.0
 10
-62.6113443607114206
 20
11.3264719466293009
 30
0.0
 10
-62.8928193374220967
 20
12.1708968767613079
 30
0.0
 10
-63.0054093281063388
 20
13.4656817696303808
 30
0.0
 10
-63.033556825777417
 20
14.7041716671573219
 30
0.0
 10
-63.1461468164616946
 20
16.280431536737062
 30
0.0
 10
-63.3713267978302142
 20
17.6878064202904035
 30
0.0
 10
-63.7372442675540896
 20
18.813706327133076
 30
0.0
 10
-63.9905717465936874
 20
19.2922137875412112
 30
0.0
 10
-64.1031617372779579
 20
19.3203612852122788
 30
0.0
  0
SPLINE
  5
5E
  8
0
 62
7
370
9
  6
ByLayer
100
AcDbEntity
100
AcDbSpline
 70
8
 71
3
 72
15
 73
11
 74
0
 40
0.0
 40
0.0
 40
0.0
 40
0.0
 40
0.125
 40
0.25
 40
0.375
 40
0.5
 40
0.625
 40
0.75
 40
0.875
 40
1.0
 40
1.0
 40
1.0
 40
1.0
 10
-61.4572969561976734
 20
10.3413095281419629
 30
0.0
 10
-60.8380520074342002
 20
10.7916694908790323
 30
0.0
 10
-60.3032495516839262
 20
11.3264719466293009
 30
0.0
 10
-60.0217745749732501
 20
12.1708968767613079
 30
0.0
 10
-59.9091845842890081
 20
13.465681769630379
 30
0.0
 10
-59.8810370866179298
 20
14.7041716671573219
 30
0.0
 10
-59.7684470959336522
 20
16.280431536737062
 30
0.0
 10
-59.5432671145651327
 20
17.6878064202904035
 30
0.0
 10
-59.1773496448412573
 20
18.813706327133076
 30
0.0
 10
-58.9240221658016594
 20
19.2922137875412112
 30
0.0
 10
-58.8114321751173819
 20
19.3203612852122788
 30
0.0
  0
SPLINE
  5
5F
  8
0
 62
7
370
9
  6
ByLayer
100
AcDbEntity
100
AcDbSpline
 70
8
 71
3
 72
15
 73
11
 74
0
 40
0.0
 40
0.0
 40
0.0
 40
0.0
 40
0.125
 40
0.25
 40
0.375
 40
0.5
 40
0.625
 40
0.75
 40
0.875
 40
1.0
 40
1.0
 40
1.0
 40
1.0
 10
-56.1655673940370903
 20
10.3413095281419629
 30
0.0
 10
-56.7848123428005636
 20
10.791669490879034
 30
0.0
 10
-57.3196147985508375
 20
11.3264719466293009
 30
0.0
 10
-57.6010897752615136
 20
12.1708968767613079
 30
0.0
 10
-57.7136797659457557
 20
13.4656817696303808
 30
0.0
 10
-57.7418272636168339
 20
14.7041716671573219
 30
0.0
 10
-57.8544172543011115
 20
16.280431536737062
 30
0.0
 10
-58.0795972356696311
 20
17.6878064202904035
 30
0.0
 10
-58.4455147053935065
 20
18.813706327133076
 30
0.0
 10
-58.6988421844331043
 20
19.2922137875412112
 30
0.0
 10
-58.8114321751173819
 20
19.3203612852122788
 30
0.0
  0
SPLINE
  5
60
  8
0
 62
7
370
9
  6
ByLayer
100
AcDbEntity
100
AcDbSpline
 70
8
 71
3
 72
15
 73
11
 74
0
 40
0.0
 40
0.0
 40
0.0
 40
0.0
 40
0.125
 40
0.25
 40
0.375
 40
0.5
 40
0.625
 40
0.75
 40
0.875
 40
1.0
 40
1.0
 40
1.0
 40
1.0
 10
-56.1655673940370903
 20
10.3413095281419629
 30
0.0
 10
-55.5463224452736171
 20
10.7916694908790323
 30
0.0
 10
-55.0115199895233431
 20
11.3264719466293009
 30
0.0
 10
-54.730045012812667
 20
12.1708968767613062
 30
0.0
 10
-54.617455022128425
 20
13.465681769630379
 30
0.0
 10
-54.5893075244573467
 20
14.7041716671573219
 30
0.0
 10
-54.4767175337730691
 20
16.280431536737062
 30
0.0
 10
-54.2515375524045496
 20
17.6878064202904035
 30
0.0
 10
-53.8856200826806742
 20
18.813706327133076
 30
0.0
 10
-53.6322926036410763
 20
19.2922137875412112
 30
0.0
 10
-53.5197026129567988
 20
19.3203612852122788
 30
0.0
  0
SPLINE
  5
61
  8
0
 62
7
370
9
  6
ByLayer
100
AcDbEntity
100
AcDbSpline
 70
8
 71
3
 72
15
 73
11
 74
0
 40
0.0
 40
0.0
 40
0.0
 40
0.0
 40
0.125
 40
0.25
 40
0.375
 40
0.5
 40
0.625
 40
0.75
 40
0.875
 40
1.0
 40
1.0
 40
1.0
 40
1.0
 10
-50.8738378318765072
 20
10.3413095281419629
 30
0.0
 10
-51.4930827806399805
 20
10.791669490879034
 30
0.0
 10
-52.0278852363902544
 20
11.3264719466293009
 30
0.0
 10
-52.3093602131009305
 20
12.1708968767613062
 30
0.0
 10
-52.4219502037851726
 20
13.4656817696303808
 30
0.0
 10
-52.4500977014562508
 20
14.7041716671573219
 30
0.0
 10
-52.5626876921405284
 20
16.280431536737062
 30
0.0
 10
-52.787867673509048
 20
17.6878064202904035
 30
0.0
 10
-53.1537851432329234
 20
18.813706327133076
 30
0.0
 10
-53.4071126222725212
 20
19.2922137875412112
 30
0.0
 10
-53.5197026129567988
 20
19.3203612852122788
 30
0.0
  0
SPLINE
  5
62
  8
0
 62
7
370
9
  6
ByLayer
100
AcDbEntity
100
AcDbSpline
 70
8
 71
3
 72
15
 73
11
 74
0
 40
0.0
 40
0.0
 40
0.0
 40
0.0
 40
0.125
 40
0.25
 40
0.375
 40
0.5
 40
0.625
 40
0.75
 40
0.875
 40
1.0
 40
1.0
 40
1.0
 40
1.0
 10
-50.8738378318765072
 20
10.3413095281419629
 30
0.0
 10
-50.254592883113034
 20
10.7916694908790323
 30
0.0
 10
-49.71979042736276
 20
11.3264719466293009
 30
0.0
 10
-49.4383154506520839
 20
12.1708968767613062
 30
0.0
 10
-49.3257254599678419
 20
13.465681769630379
 30
0.0
 10
-49.2975779622967636
 20
14.7041716671573219
 30
0.0
 10
-49.184987971612486
 20
16.280431536737062
 30
0.0
 10
-48.9598079902439665
 20
17.6878064202904035
 30
0.0
 10
-48.5938905205200911
 20
18.813706327133076
 30
0.0
 10
-48.3405630414804932
 20
19.2922137875412112
 30
0.0
 10
-48.2279730507962157
 20
19.3203612852122788
 30
0.0
  0
SPLINE
  5
63
  8
0
 62
7
370
9
  6
ByLayer
100
AcDbEntity
100
AcDbSpline
 70
8
 71
3
 72
15
 73
11
 74
0
 40
0.0
 40
0.0
 40
0.0
 40
0.0
 40
0.125
 40
0.25
 40
0.375
 40
0.5
 40
0.625
 40
0.75
 40
0.875
 40
1.0
 40
1.0
 40
1.0
 40
1.0
 10
-45.5821082697159241
 20
10.3413095281419629
 30
0.0
 10
-46.2013532184793974
 20
10.7916694908790323
 30
0.0
 10
-46.7361556742296713
 20
11.3264719466293009
 30
0.0
 10
-47.0176306509403474
 20
12.1708968767613062
 30
0.0
 10
-47.1302206416245895
 20
13.4656817696303808
 30
0.0
 10
-47.1583681392956677
 20
14.7041716671573219
 30
0.0
 10
-47.2709581299799453
 20
16.280431536737062
 30
0.0
 10
-47.4961381113484649
 20
17.6878064202904035
 30
0.0
 10
-47.8620555810723403
 20
18.813706327133076
 30
0.0
 10
-48.1153830601119381
 20
19.2922137875412112
 30
0.0
 10
-48.2279730507962157
 20
19.3203612852122788
 30
0.0
  0
SPLINE
  5
64
  8
0
 62
7
370
9
  6
ByLayer
100
AcDbEntity
100
AcDbSpline
 70
8
 71
3
 72
15
 73
11
 74
0
 40
0.0
 40
0.0
 40
0.0
 40
0.0
 40
0.125
 40
0.25
 40
0.375
 40
0.5
 40
0.625
 40
0.75
 40
0.875
 40
1.0
 40
1.0
 40
1.0
 40
1.0
 10
-45.5680345208813264
 20
10.348346402559736
 30
0.0
 10
-44.9487895721178532
 20
10.7987063652968054
 30
0.0
 10
-44.4139871163675792
 20
11.333508821047074
 30
0.0
 10
-44.1325121396569031
 20
12.1779337511790793
 30
0.0
 10
-44.0199221489726611
 20
13.4727186440481539
 30
0.0
 10
-43.9917746513015828
 20
14.7112085415750933
 30
0.0
 10
-43.8791846606173053
 20
16.2874684111548333
 30
0.0
 10
-43.6540046792487857
 20
17.6948432947081784
 30
0.0
 10
-43.2880872095249103
 20
18.8207432015508473
 30
0.0
 10
-43.0347597304853124
 20
19.2992506619589825
 30
0.0
 10
-42.9221697398010349
 20
19.3273981596300501
 30
0.0
  0
SPLINE
  5
65
  8
0
 62
7
370
9
  6
ByLayer
100
AcDbEntity
100
AcDbSpline
 70
8
 71
3
 72
15
 73
11
 74
0
 40
0.0
 40
0.0
 40
0.0
 40
0.0
 40
0.125
 40
0.25
 40
0.375
 40
0.5
 40
0.625
 40
0.75
 40
0.875
 40
1.0
 40
1.0
 40
1.0
 40
1.0
 10
-40.2763049587207433
 20
10.348346402559736
 30
0.0
 10
-40.8955499074842166
 20
10.7987063652968054
 30
0.0
 10
-41.4303523632344906
 20
11.333508821047074
 30
0.0
 10
-41.7118273399451667
 20
12.1779337511790793
 30
0.0
 10
-41.8244173306294087
 20
13.4727186440481539
 30
0.0
 10
-41.852564828300487
 20
14.7112085415750933
 30
0.0
 10
-41.9651548189847645
 20
16.2874684111548333
 30
0.0
 10
-42.1903348003532841
 20
17.6948432947081749
 30
0.0
 10
-42.5562522700771595
 20
18.8207432015508473
 30
0.0
 10
-42.8095797491167573
 20
19.2992506619589825
 30
0.0
 10
-42.9221697398010349
 20
19.3273981596300501
 30
0.0
  0
SPLINE
  5
66
  8
0
 62
7
370
9
  6
ByLayer
100
AcDbEntity
100
AcDbSpline
 70
8
 71
3
 72
15
 73
11
 74
0
 40
0.0
 40
0.0
 40
0.0
 40
0.0
 40
0.125
 40
0.25
 40
0.375
 40
0.5
 40
0.625
 40
0.75
 40
0.875
 40
1.0
 40
1.0
 40
1.0
 40
1.0
 10
-40.2763049587207433
 20
10.348346402559736
 30
0.0
 10
-39.6570600099572701
 20
10.7987063652968054
 30
0.0
 10
-39.1222575542069961
 20
11.333508821047074
 30
0.0
 10
-38.84078257749632
 20
12.1779337511790793
 30
0.0
 10
-38.728192586812078
 20
13.4727186440481521
 30
0.0
 10
-38.7000450891409997
 20
14.7112085415750933
 30
0.0
 10
-38.5874550984567222
 20
16.2874684111548333
 30
0.0
 10
-38.3622751170882026
 20
17.6948432947081784
 30
0.0
 10
-37.9963576473643272
 20
18.8207432015508473
 30
0.0
 10
-37.7430301683247293
 20
19.2992506619589825
 30
0.0
 10
-37.6304401776404518
 20
19.3273981596300501
 30
0.0
  0
SPLINE
  5
67
  8
0
 62
7
370
9
  6
ByLayer
100
AcDbEntity
100
AcDbSpline
 70
8
 71
3
 72
15
 73
11
 74
0
 40
0.0
 40
0.0
 40
0.0
 40
0.0
 40
0.125
 40
0.25
 40
0.375
 40
0.5
 40
0.625
 40
0.75
 40
0.875
 40
1.0
 40
1.0
 40
1.0
 40
1.0
 10
-34.9845753965601602
 20
10.348346402559736
 30
0.0
 10
-35.6038203453236335
 20
10.7987063652968054
 30
0.0
 10
-36.1386228010739075
 20
11.333508821047074
 30
0.0
 10
-36.4200977777845836
 20
12.1779337511790793
 30
0.0
 10
-36.5326877684688256
 20
13.4727186440481539
 30
0.0
 10
-36.5608352661399039
 20
14.7112085415750933
 30
0.0
 10
-36.6734252568241814
 20
16.2874684111548333
 30
0.0
 10
-36.898605238192701
 20
17.6948432947081749
 30
0.0
 10
-37.2645227079165764
 20
18.8207432015508473
 30
0.0
 10
-37.5178501869561742
 20
19.2992506619589825
 30
0.0
 10
-37.6304401776404518
 20
19.3273981596300501
 30
0.0
  0
SPLINE
  5
68
  8
0
 62
7
370
9
  6
ByLayer
100
AcDbEntity
100
AcDbSpline
 70
8
 71
3
 72
15
 73
11
 74
0
 40
0.0
 40
0.0
 40
0.0
 40
0.0
 40
0.125
 40
0.25
 40
0.375
 40
0.5
 40
0.625
 40
0.75
 40
0.875
 40
1.0
 40
1.0
 40
1.0
 40
1.0
 10
-34.9845753965601602
 20
10.348346402559736
 30
0.0
 10
-34.365330447796687
 20
10.7987063652968036
 30
0.0
 10
-33.830527992046413
 20
11.333508821047074
 30
0.0
 10
-33.5490530153357369
 20
12.1779337511790793
 30
0.0
 10
-33.4364630246514949
 20
13.4727186440481521
 30
0.0
 10
-33.4083155269804166
 20
14.7112085415750933
 30
0.0
 10
-33.2957255362961391
 20
16.2874684111548333
 30
0.0
 10
-33.0705455549276195
 20
17.6948432947081784
 30
0.0
 10
-32.7046280852037441
 20
18.8207432015508473
 30
0.0
 10
-32.4513006061641534
 20
19.2992506619589825
 30
0.0
 10
-32.3387106154798687
 20
19.3273981596300501
 30
0.0
  0
SPLINE
  5
69
  8
0
 62
7
370
9
  6
ByLayer
100
AcDbEntity
100
AcDbSpline
 70
8
 71
3
 72
15
 73
11
 74
0
 40
0.0
 40
0.0
 40
0.0
 40
0.0
 40
0.125
 40
0.25
 40
0.375
 40
0.5
 40
0.625
 40
0.75
 40
0.875
 40
1.0
 40
1.0
 40
1.0
 40
1.0
 10
-29.6928458343995771
 20
10.3483464025597343
 30
0.0
 10
-30.3120907831630575
 20
10.7987063652968054
 30
0.0
 10
-30.8468932389133244
 20
11.333508821047074
 30
0.0
 10
-31.1283682156239934
 20
12.1779337511790793
 30
0.0
 10
-31.2409582063082496
 20
13.4727186440481539
 30
0.0
 10
-31.2691057039793208
 20
14.7112085415750933
 30
0.0
 10
-31.3816956946635912
 20
16.2874684111548333
 30
0.0
 10
-31.6068756760321179
 20
17.6948432947081749
 30
0.0
 10
-31.9727931457559862
 20
18.8207432015508473
 30
0.0
 10
-32.226120624795584
 20
19.2992506619589825
 30
0.0
 10
-32.3387106154798687
 20
19.3273981596300501
 30
0.0
  0
SPLINE
  5
6A
  8
0
 62
7
370
9
  6
ByLayer
100
AcDbEntity
100
AcDbSpline
 70
8
 71
3
 72
15
 73
11
 74
0
 40
0.0
 40
0.0
 40
0.0
 40
0.0
 40
0.125
 40
0.25
 40
0.375
 40
0.5
 40
0.625
 40
0.75
 40
0.875
 40
1.0
 40
1.0
 40
1.0
 40
1.0
 10
-29.6928458343995771
 20
10.3483464025597343
 30
0.0
 10
-29.0736008856360968
 20
10.7987063652968036
 30
0.0
 10
-28.5387984298858299
 20
11.333508821047074
 30
0.0
 10
-28.2573234531751609
 20
12.1779337511790775
 30
0.0
 10
-28.1447334624909047
 20
13.4727186440481521
 30
0.0
 10
-28.1165859648198335
 20
14.7112085415750933
 30
0.0
 10
-28.0039959741355631
 20
16.2874684111548333
 30
0.0
 10
-27.7788159927670364
 20
17.6948432947081749
 30
0.0
 10
-27.4128985230431681
 20
18.8207432015508473
 30
0.0
 10
-27.1595710440035703
 20
19.2992506619589825
 30
0.0
 10
-27.0469810533192856
 20
19.3273981596300501
 30
0.0
  0
SPLINE
  5
6B
  8
0
 62
7
370
9
  6
ByLayer
100
AcDbEntity
100
AcDbSpline
 70
8
 71
3
 72
15
 73
11
 74
0
 40
0.0
 40
0.0
 40
0.0
 40
0.0
 40
0.125
 40
0.25
 40
0.375
 40
0.5
 40
0.625
 40
0.75
 40
0.875
 40
1.0
 40
1.0
 40
1.0
 40
1.0
 10
-24.401116272238994
 20
10.3483464025597343
 30
0.0
 10
-25.0203612210024744
 20
10.7987063652968054
 30
0.0
 10
-25.5551636767527413
 20
11.3335088210470722
 30
0.0
 10
-25.8366386534634103
 20
12.1779337511790775
 30
0.0
 10
-25.9492286441476665
 20
13.4727186440481539
 30
0.0
 10
-25.9773761418187377
 20
14.7112085415750933
 30
0.0
 10
-26.0899661325030081
 20
16.2874684111548333
 30
0.0
 10
-26.3151461138715348
 20
17.6948432947081749
 30
0.0
 10
-26.6810635835954031
 20
18.8207432015508473
 30
0.0
 10
-26.9343910626350009
 20
19.2992506619589825
 30
0.0
 10
-27.0469810533192856
 20
19.3273981596300501
 30
0.0
  0
SPLINE
  5
6C
  8
0
 62
7
370
9
  6
ByLayer
100
AcDbEntity
100
AcDbSpline
 70
8
 71
3
 72
15
 73
11
 74
0
 40
0.0
 40
0.0
 40
0.0
 40
0.0
 40
0.125
 40
0.25
 40
0.375
 40
0.5
 40
0.625
 40
0.75
 40
0.875
 40
1.0
 40
1.0
 40
1.0
 40
1.0
 10
-14.1364450825099937
 20
59.1180780057633868
 30
0.0
 10
-12.7283830041885722
 20
56.800513652841893
 30
0.0
 10
-12.8163439344106678
 20
54.2936271415125162
 30
0.0
 10
-11.9367346321898253
 20
45.4535536541931577
 30
0.0
 10
-11.6070570657176404
 20
29.7757492951299021
 30
0.0
 10
-10.9779604927692986
 20
20.4462611920548767
 30
0.0
 10
-8.0161166857097754
 20
13.4840504857618804
 30
0.0
 10
-8.7613450511728104
 20
14.992683518285725
 30
0.0
 10
-7.2644974089096337
 20
12.6035821900818519
 30
0.0
 10
-6.4055039497096118
 20
11.4009913472018063
 30
0.0
 10
-4.627499158314663
 20
10.3131620304709024
 30
0.0
  0
SPLINE
  5
6D
  8
0
 62
7
370
9
  6
ByLayer
100
AcDbEntity
100
AcDbSpline
 70
8
 71
3
 72
15
 73
11
 74
0
 40
0.0
 40
0.0
 40
0.0
 40
0.0
 40
0.125
 40
0.25
 40
0.375
 40
0.5
 40
0.625
 40
0.75
 40
0.875
 40
1.0
 40
1.0
 40
1.0
 40
1.0
 10
-14.5927853577083795
 20
59.1180780057633868
 30
0.0
 10
-16.000847436029801
 20
56.800513652841893
 30
0.0
 10
-15.9128865058077196
 20
54.2936271415125162
 30
0.0
 10
-16.7924958080285762
 20
45.4535536541931577
 30
0.0
 10
-17.1221733745007327
 20
29.7757492951299021
 30
0.0
 10
-17.7512699474490887
 20
20.4462611920548767
 30
0.0
 10
-20.7131137545086119
 20
13.4840504857618804
 30
0.0
 10
-19.9678853890455628
 20
14.9926835182857232
 30
0.0
 10
-21.4647330313087537
 20
12.6035821900818537
 30
0.0
 10
-22.3237264905087613
 20
11.4009913472018134
 30
0.0
 10
-24.401116272238994
 20
10.3483464025597343
 30
0.0
  0
SPLINE
  5
6E
  8
0
 62
7
370
9
  6
ByLayer
100
AcDbEntity
100
AcDbSpline
 70
8
 71
3
 72
15
 73
11
 74
0
 40
0.0
 40
0.0
 40
0.0
 40
0.0
 40
0.125
 40
0.25
 40
0.375
 40
0.5
 40
0.625
 40
0.75
 40
0.875
 40
1.0
 40
1.0
 40
1.0
 40
1.0
 10
-4.6134254094800724
 20
10.3201989048886755
 30
0.0
 10
-3.9941804607165921
 20
10.7705588676257431
 30
0.0
 10
-3.459378004966311
 20
11.3053613233760135
 30
0.0
 10
-3.177903028255642
 20
12.1497862535080188
 30
0.0
 10
-3.0653130375713999
 20
13.4445711463770916
 30
0.0
 10
-3.0371655399003146
 20
14.6830610439040328
 30
0.0
 10
-2.9245755492160441
 20
16.2593209134837728
 30
0.0
 10
-2.6993955678475174
 20
17.6666957970371143
 30
0.0
 10
-2.3334780981236491
 20
18.7925957038797868
 30
0.0
 10
-2.0801506190840513
 20
19.271103164287922
 30
0.0
 10
-1.9675606283997809
 20
19.2992506619589896
 30
0.0
  0
SPLINE
  5
6F
  8
0
 62
7
370
9
  6
ByLayer
100
AcDbEntity
100
AcDbSpline
 70
8
 71
3
 72
15
 73
11
 74
0
 40
0.0
 40
0.0
 40
0.0
 40
0.0
 40
0.125
 40
0.25
 40
0.375
 40
0.5
 40
0.625
 40
0.75
 40
0.875
 40
1.0
 40
1.0
 40
1.0
 40
1.0
 10
0.6783041526805107
 20
10.3201989048886738
 30
0.0
 10
0.0590592039170446
 20
10.7705588676257449
 30
0.0
 10
-0.4757432518332223
 20
11.3053613233760135
 30
0.0
 10
-0.7572182285439055
 20
12.1497862535080188
 30
0.0
 10
-0.8698082192281475
 20
13.4445711463770916
 30
0.0
 10
-0.8979557168992187
 20
14.6830610439040328
 30
0.0
 10
-1.0105457075835034
 20
16.2593209134837728
 30
0.0
 10
-1.2357256889520158
 20
17.6666957970371143
 30
0.0
 10
-1.6016431586758983
 20
18.7925957038797868
 30
0.0
 10
-1.8549706377154962
 20
19.271103164287922
 30
0.0
 10
-1.9675606283997809
 20
19.2992506619589896
 30
0.0
  0
SPLINE
  5
70
  8
0
 62
7
370
9
  6
ByLayer
100
AcDbEntity
100
AcDbSpline
 70
8
 71
3
 72
15
 73
11
 74
0
 40
0.0
 40
0.0
 40
0.0
 40
0.0
 40
0.125
 40
0.25
 40
0.375
 40
0.5
 40
0.625
 40
0.75
 40
0.875
 40
1.0
 40
1.0
 40
1.0
 40
1.0
 10
0.6783041526805107
 20
10.3201989048886738
 30
0.0
 10
1.297549101443991
 20
10.7705588676257431
 30
0.0
 10
1.8323515571942721
 20
11.3053613233760135
 30
0.0
 10
2.1138265339049411
 20
12.1497862535080188
 30
0.0
 10
2.2264165245891832
 20
13.4445711463770898
 30
0.0
 10
2.2545640222602685
 20
14.6830610439040328
 30
0.0
 10
2.367154012944539
 20
16.2593209134837728
 30
0.0
 10
2.5923339943130657
 20
17.6666957970371143
 30
0.0
 10
2.958251464036934
 20
18.7925957038797868
 30
0.0
 10
3.2115789430765318
 20
19.271103164287922
 30
0.0
 10
3.3241689337608022
 20
19.2992506619589896
 30
0.0
  0
SPLINE
  5
71
  8
0
 62
7
370
9
  6
ByLayer
100
AcDbEntity
100
AcDbSpline
 70
8
 71
3
 72
15
 73
11
 74
0
 40
0.0
 40
0.0
 40
0.0
 40
0.0
 40
0.125
 40
0.25
 40
0.375
 40
0.5
 40
0.625
 40
0.75
 40
0.875
 40
1.0
 40
1.0
 40
1.0
 40
1.0
 10
5.9700337148410938
 20
10.3201989048886738
 30
0.0
 10
5.3507887660776277
 20
10.7705588676257449
 30
0.0
 10
4.8159863103273608
 20
11.3053613233760117
 30
0.0
 10
4.5345113336166776
 20
12.1497862535080188
 30
0.0
 10
4.4219213429324356
 20
13.4445711463770916
 30
0.0
 10
4.3937738452613644
 20
14.6830610439040328
 30
0.0
 10
4.2811838545770797
 20
16.2593209134837728
 30
0.0
 10
4.0560038732085673
 20
17.6666957970371143
 30
0.0
 10
3.6900864034846848
 20
18.7925957038797868
 30
0.0
 10
3.4367589244450869
 20
19.271103164287922
 30
0.0
 10
3.3241689337608022
 20
19.2992506619589896
 30
0.0
  0
SPLINE
  5
72
  8
0
 62
7
370
9
  6
ByLayer
100
AcDbEntity
100
AcDbSpline
 70
8
 71
3
 72
15
 73
11
 74
0
 40
0.0
 40
0.0
 40
0.0
 40
0.0
 40
0.125
 40
0.25
 40
0.375
 40
0.5
 40
0.625
 40
0.75
 40
0.875
 40
1.0
 40
1.0
 40
1.0
 40
1.0
 10
5.9700337148410938
 20
10.3201989048886738
 30
0.0
 10
6.5892786636045741
 20
10.7705588676257431
 30
0.0
 10
7.1240811193548552
 20
11.3053613233760117
 30
0.0
 10
7.4055560960655242
 20
12.1497862535080188
 30
0.0
 10
7.5181460867497663
 20
13.4445711463770898
 30
0.0
 10
7.5462935844208516
 20
14.6830610439040328
 30
0.0
 10
7.6588835751051221
 20
16.2593209134837728
 30
0.0
 10
7.8840635564736488
 20
17.6666957970371143
 30
0.0
 10
8.2499810261975171
 20
18.7925957038797868
 30
0.0
 10
8.5033085052371149
 20
19.271103164287922
 30
0.0
 10
8.6158984959213853
 20
19.2992506619589896
 30
0.0
  0
SPLINE
  5
73
  8
0
 62
7
370
9
  6
ByLayer
100
AcDbEntity
100
AcDbSpline
 70
8
 71
3
 72
15
 73
11
 74
0
 40
0.0
 40
0.0
 40
0.0
 40
0.0
 40
0.125
 40
0.25
 40
0.375
 40
0.5
 40
0.625
 40
0.75
 40
0.875
 40
1.0
 40
1.0
 40
1.0
 40
1.0
 10
11.2617632770016769
 20
10.3201989048886738
 30
0.0
 10
10.6425183282382108
 20
10.7705588676257449
 30
0.0
 10
10.1077158724879439
 20
11.3053613233760117
 30
0.0
 10
9.8262408957772607
 20
12.1497862535080188
 30
0.0
 10
9.7136509050930187
 20
13.4445711463770916
 30
0.0
 10
9.6855034074219475
 20
14.6830610439040328
 30
0.0
 10
9.5729134167376628
 20
16.2593209134837728
 30
0.0
 10
9.3477334353691504
 20
17.6666957970371143
 30
0.0
 10
8.9818159656452679
 20
18.7925957038797868
 30
0.0
 10
8.72848848660567
 20
19.271103164287922
 30
0.0
 10
8.6158984959213853
 20
19.2992506619589896
 30
0.0
  0
SPLINE
  5
74
  8
0
 62
7
370
9
  6
ByLayer
100
AcDbEntity
100
AcDbSpline
 70
8
 71
3
 72
15
 73
11
 74
0
 40
0.0
 40
0.0
 40
0.0
 40
0.0
 40
0.125
 40
0.25
 40
0.375
 40
0.5
 40
0.625
 40
0.75
 40
0.875
 40
1.0
 40
1.0
 40
1.0
 40
1.0
 10
11.2617632770016769
 20
10.3201989048886738
 30
0.0
 10
11.8810082257651572
 20
10.7705588676257431
 30
0.0
 10
12.4158106815154383
 20
11.3053613233760117
 30
0.0
 10
12.6972856582261073
 20
12.149786253508017
 30
0.0
 10
12.8098756489103494
 20
13.4445711463770898
 30
0.0
 10
12.8380231465814347
 20
14.6830610439040328
 30
0.0
 10
12.9506131372657052
 20
16.2593209134837728
 30
0.0
 10
13.1757931186342319
 20
17.6666957970371143
 30
0.0
 10
13.5417105883581002
 20
18.7925957038797868
 30
0.0
 10
13.795038067397698
 20
19.271103164287922
 30
0.0
 10
13.9076280580819684
 20
19.2992506619589896
 30
0.0
  0
SPLINE
  5
75
  8
0
 62
7
370
9
  6
ByLayer
100
AcDbEntity
100
AcDbSpline
 70
8
 71
3
 72
15
 73
11
 74
0
 40
0.0
 40
0.0
 40
0.0
 40
0.0
 40
0.125
 40
0.25
 40
0.375
 40
0.5
 40
0.625
 40
0.75
 40
0.875
 40
1.0
 40
1.0
 40
1.0
 40
1.0
 10
16.55349283916226
 20
10.3201989048886738
 30
0.0
 10
15.9342478903987939
 20
10.7705588676257431
 30
0.0
 10
15.399445434648527
 20
11.3053613233760117
 30
0.0
 10
15.1179704579378438
 20
12.149786253508017
 30
0.0
 10
15.0053804672536018
 20
13.4445711463770916
 30
0.0
 10
14.9772329695825306
 20
14.6830610439040328
 30
0.0
 10
14.8646429788982459
 20
16.2593209134837728
 30
0.0
 10
14.6394629975297335
 20
17.6666957970371143
 30
0.0
 10
14.273545527805851
 20
18.7925957038797868
 30
0.0
 10
14.0202180487662531
 20
19.271103164287922
 30
0.0
 10
13.9076280580819684
 20
19.2992506619589896
 30
0.0
  0
SPLINE
  5
76
  8
0
 62
7
370
9
  6
ByLayer
100
AcDbEntity
100
AcDbSpline
 70
8
 71
3
 72
15
 73
11
 74
0
 40
0.0
 40
0.0
 40
0.0
 40
0.0
 40
0.125
 40
0.25
 40
0.375
 40
0.5
 40
0.625
 40
0.75
 40
0.875
 40
1.0
 40
1.0
 40
1.0
 40
1.0
 10
16.5675665879968648
 20
10.3272357793064469
 30
0.0
 10
17.1868115367603309
 20
10.7775957420435162
 30
0.0
 10
17.721613992510612
 20
11.3123981977937866
 30
0.0
 10
18.0030889692212952
 20
12.1568231279257901
 30
0.0
 10
18.115678959905523
 20
13.4516080207948647
 30
0.0
 10
18.1438264575766084
 20
14.6900979183218041
 30
0.0
 10
18.256416448260893
 20
16.2663577879015477
 30
0.0
 10
18.4815964296294055
 20
17.6737326714548857
 30
0.0
 10
18.847513899353288
 20
18.7996325782975617
 30
0.0
 10
19.1008413783928859
 20
19.2781400387056934
 30
0.0
 10
19.2134313690771563
 20
19.306287536376761
 30
0.0
  0
SPLINE
  5
77
  8
0
 62
7
370
9
  6
ByLayer
100
AcDbEntity
100
AcDbSpline
 70
8
 71
3
 72
15
 73
11
 74
0
 40
0.0
 40
0.0
 40
0.0
 40
0.0
 40
0.125
 40
0.25
 40
0.375
 40
0.5
 40
0.625
 40
0.75
 40
0.875
 40
1.0
 40
1.0
 40
1.0
 40
1.0
 10
21.8592961501574479
 20
10.3272357793064469
 30
0.0
 10
21.2400512013939817
 20
10.7775957420435162
 30
0.0
 10
20.7052487456437007
 20
11.3123981977937866
 30
0.0
 10
20.4237737689330174
 20
12.1568231279257901
 30
0.0
 10
20.3111837782487896
 20
13.4516080207948647
 30
0.0
 10
20.2830362805777042
 20
14.6900979183218041
 30
0.0
 10
20.1704462898934196
 20
16.2663577879015477
 30
0.0
 10
19.9452663085249071
 20
17.6737326714548857
 30
0.0
 10
19.5793488388010246
 20
18.7996325782975617
 30
0.0
 10
19.3260213597614268
 20
19.2781400387056934
 30
0.0
 10
19.2134313690771563
 20
19.306287536376761
 30
0.0
  0
SPLINE
  5
78
  8
0
 62
7
370
9
  6
ByLayer
100
AcDbEntity
100
AcDbSpline
 70
8
 71
3
 72
15
 73
11
 74
0
 40
0.0
 40
0.0
 40
0.0
 40
0.0
 40
0.125
 40
0.25
 40
0.375
 40
0.5
 40
0.625
 40
0.75
 40
0.875
 40
1.0
 40
1.0
 40
1.0
 40
1.0
 10
21.8592961501574479
 20
10.3272357793064469
 30
0.0
 10
22.478541098920914
 20
10.7775957420435162
 30
0.0
 10
23.0133435546711951
 20
11.3123981977937866
 30
0.0
 10
23.2948185313818783
 20
12.1568231279257901
 30
0.0
 10
23.4074085220661061
 20
13.451608020794863
 30
0.0
 10
23.4355560197371915
 20
14.6900979183218041
 30
0.0
 10
23.5481460104214761
 20
16.2663577879015477
 30
0.0
 10
23.7733259917899886
 20
17.6737326714548857
 30
0.0
 10
24.1392434615138711
 20
18.7996325782975617
 30
0.0
 10
24.392570940553469
 20
19.2781400387056934
 30
0.0
 10
24.5051609312377394
 20
19.306287536376761
 30
0.0
  0
SPLINE
  5
79
  8
0
 62
7
370
9
  6
ByLayer
100
AcDbEntity
100
AcDbSpline
 70
8
 71
3
 72
15
 73
11
 74
0
 40
0.0
 40
0.0
 40
0.0
 40
0.0
 40
0.125
 40
0.25
 40
0.375
 40
0.5
 40
0.625
 40
0.75
 40
0.875
 40
1.0
 40
1.0
 40
1.0
 40
1.0
 10
27.151025712318031
 20
10.3272357793064469
 30
0.0
 10
26.5317807635545648
 20
10.7775957420435162
 30
0.0
 10
25.9969783078042838
 20
11.3123981977937849
 30
0.0
 10
25.7155033310936005
 20
12.1568231279257901
 30
0.0
 10
25.6029133404093727
 20
13.4516080207948647
 30
0.0
 10
25.5747658427382873
 20
14.6900979183218041
 30
0.0
 10
25.4621758520540027
 20
16.2663577879015477
 30
0.0
 10
25.2369958706854902
 20
17.6737326714548857
 30
0.0
 10
24.8710784009616077
 20
18.7996325782975617
 30
0.0
 10
24.6177509219220099
 20
19.2781400387056934
 30
0.0
 10
24.5051609312377394
 20
19.306287536376761
 30
0.0
  0
SPLINE
  5
7A
  8
0
 62
7
370
9
  6
ByLayer
100
AcDbEntity
100
AcDbSpline
 70
8
 71
3
 72
15
 73
11
 74
0
 40
0.0
 40
0.0
 40
0.0
 40
0.0
 40
0.125
 40
0.25
 40
0.375
 40
0.5
 40
0.625
 40
0.75
 40
0.875
 40
1.0
 40
1.0
 40
1.0
 40
1.0
 10
27.151025712318031
 20
10.3272357793064469
 30
0.0
 10
27.7702706610814971
 20
10.7775957420435162
 30
0.0
 10
28.3050731168317782
 20
11.3123981977937849
 30
0.0
 10
28.5865480935424614
 20
12.1568231279257901
 30
0.0
 10
28.6991380842266892
 20
13.451608020794863
 30
0.0
 10
28.7272855818977746
 20
14.6900979183218041
 30
0.0
 10
28.8398755725820592
 20
16.2663577879015477
 30
0.0
 10
29.0650555539505717
 20
17.6737326714548857
 30
0.0
 10
29.4309730236744542
 20
18.7996325782975617
 30
0.0
 10
29.6843005027140521
 20
19.2781400387056934
 30
0.0
 10
29.7968904933983225
 20
19.306287536376761
 30
0.0
  0
SPLINE
  5
7B
  8
0
 62
7
370
9
  6
ByLayer
100
AcDbEntity
100
AcDbSpline
 70
8
 71
3
 72
15
 73
11
 74
0
 40
0.0
 40
0.0
 40
0.0
 40
0.0
 40
0.125
 40
0.25
 40
0.375
 40
0.5
 40
0.625
 40
0.75
 40
0.875
 40
1.0
 40
1.0
 40
1.0
 40
1.0
 10
32.4427552744786283
 20
10.3272357793064469
 30
0.0
 10
31.8235103257151479
 20
10.7775957420435162
 30
0.0
 10
31.2887078699648669
 20
11.3123981977937849
 30
0.0
 10
31.0072328932541836
 20
12.1568231279257901
 30
0.0
 10
30.8946429025699558
 20
13.4516080207948647
 30
0.0
 10
30.8664954048988704
 20
14.6900979183218041
 30
0.0
 10
30.7539054142145858
 20
16.2663577879015477
 30
0.0
 10
30.5287254328460733
 20
17.6737326714548857
 30
0.0
 10
30.1628079631221908
 20
18.7996325782975617
 30
0.0
 10
29.909480484082593
 20
19.2781400387056934
 30
0.0
 10
29.7968904933983225
 20
19.306287536376761
 30
0.0
  0
SPLINE
  5
7C
  8
0
 62
7
370
9
  6
ByLayer
100
AcDbEntity
100
AcDbSpline
 70
8
 71
3
 72
15
 73
11
 74
0
 40
0.0
 40
0.0
 40
0.0
 40
0.0
 40
0.125
 40
0.25
 40
0.375
 40
0.5
 40
0.625
 40
0.75
 40
0.875
 40
1.0
 40
1.0
 40
1.0
 40
1.0
 10
32.4427552744786283
 20
10.3272357793064469
 30
0.0
 10
33.0620002232420802
 20
10.7775957420435162
 30
0.0
 10
33.5968026789923613
 20
11.3123981977937849
 30
0.0
 10
33.8782776557030445
 20
12.1568231279257901
 30
0.0
 10
33.9908676463872723
 20
13.451608020794863
 30
0.0
 10
34.0190151440583577
 20
14.6900979183218041
 30
0.0
 10
34.1316051347426423
 20
16.2663577879015477
 30
0.0
 10
34.3567851161111548
 20
17.6737326714548857
 30
0.0
 10
34.7227025858350373
 20
18.7996325782975617
 30
0.0
 10
34.9760300648746352
 20
19.2781400387056934
 30
0.0
 10
35.0886200555588914
 20
19.306287536376761
 30
0.0
  0
SPLINE
  5
7D
  8
0
 62
7
370
9
  6
ByLayer
100
AcDbEntity
100
AcDbSpline
 70
8
 71
3
 72
15
 73
11
 74
0
 40
0.0
 40
0.0
 40
0.0
 40
0.0
 40
0.125
 40
0.25
 40
0.375
 40
0.5
 40
0.625
 40
0.75
 40
0.875
 40
1.0
 40
1.0
 40
1.0
 40
1.0
 10
37.7344848366392114
 20
10.3272357793064451
 30
0.0
 10
37.115239887875731
 20
10.7775957420435162
 30
0.0
 10
36.58043743212545
 20
11.3123981977937849
 30
0.0
 10
36.2989624554147667
 20
12.1568231279257901
 30
0.0
 10
36.1863724647305389
 20
13.4516080207948647
 30
0.0
 10
36.1582249670594535
 20
14.6900979183218041
 30
0.0
 10
36.0456349763751689
 20
16.2663577879015477
 30
0.0
 10
35.8204549950066564
 20
17.6737326714548857
 30
0.0
 10
35.4545375252827739
 20
18.7996325782975617
 30
0.0
 10
35.2012100462431761
 20
19.2781400387056934
 30
0.0
 10
35.0886200555588914
 20
19.306287536376761
 30
0.0
  0
SPLINE
  5
7E
  8
0
 62
7
370
9
  6
ByLayer
100
AcDbEntity
100
AcDbSpline
 70
8
 71
3
 72
15
 73
11
 74
0
 40
0.0
 40
0.0
 40
0.0
 40
0.0
 40
0.125
 40
0.25
 40
0.375
 40
0.5
 40
0.625
 40
0.75
 40
0.875
 40
1.0
 40
1.0
 40
1.0
 40
1.0
 10
47.9991560263681833
 20
59.0969673825101012
 30
0.0
 10
49.4072181046896048
 20
56.7794030295886145
 30
0.0
 10
49.3192571744675377
 20
54.2725165182592306
 30
0.0
 10
50.1988664766883801
 20
45.432443030939865
 30
0.0
 10
50.5285440431605366
 20
29.7546386718766165
 30
0.0
 10
51.1576406161088926
 20
20.425150568801584
 30
0.0
 10
54.1194844231684158
 20
13.4629398625085912
 30
0.0
 10
53.3742560577053666
 20
14.9715728950324358
 30
0.0
 10
54.8711036999685575
 20
12.5824715668285627
 30
0.0
 10
55.7300971591685652
 20
11.3798807239485171
 30
0.0
 10
57.5081019505635425
 20
10.2920514072176132
 30
0.0
  0
SPLINE
  5
7F
  8
0
 62
7
370
9
  6
ByLayer
100
AcDbEntity
100
AcDbSpline
 70
8
 71
3
 72
15
 73
11
 74
0
 40
0.0
 40
0.0
 40
0.0
 40
0.0
 40
0.125
 40
0.25
 40
0.375
 40
0.5
 40
0.625
 40
0.75
 40
0.875
 40
1.0
 40
1.0
 40
1.0
 40
1.0
 10
47.5428157511697975
 20
59.0969673825101012
 30
0.0
 10
46.134753672848376
 20
56.7794030295886145
 30
0.0
 10
46.2227146030704716
 20
54.2725165182592306
 30
0.0
 10
45.3431053008496292
 20
45.432443030939865
 30
0.0
 10
45.0134277343774443
 20
29.7546386718766165
 30
0.0
 10
44.3843311614291167
 20
20.4251505688015875
 30
0.0
 10
41.4224873543695651
 20
13.4629398625085912
 30
0.0
 10
42.1677157198326142
 20
14.971572895032434
 30
0.0
 10
40.6708680775694518
 20
12.5824715668285627
 30
0.0
 10
39.8118746183694157
 20
11.3798807239485242
 30
0.0
 10
37.7344848366392114
 20
10.3272357793064451
 30
0.0
  0
SPLINE
  5
80
  8
0
 62
7
370
9
  6
ByLayer
100
AcDbEntity
100
AcDbSpline
 70
8
 71
3
 72
15
 73
11
 74
0
 40
0.0
 40
0.0
 40
0.0
 40
0.0
 40
0.125
 40
0.25
 40
0.375
 40
0.5
 40
0.625
 40
0.75
 40
0.875
 40
1.0
 40
1.0
 40
1.0
 40
1.0
 10
57.522175699398133
 20
10.2990882816353864
 30
0.0
 10
58.1414206481615849
 20
10.7494482443724557
 30
0.0
 10
58.676223103911866
 20
11.2842507001227244
 30
0.0
 10
58.9576980806225492
 20
12.1286756302547296
 30
0.0
 10
59.0702880713068055
 20
13.4234605231238042
 30
0.0
 10
59.0984355689778624
 20
14.6619504206507436
 30
0.0
 10
59.2110255596621471
 20
16.2382102902304837
 30
0.0
 10
59.4362055410306596
 20
17.6455851737838252
 30
0.0
 10
59.8021230107545421
 20
18.7714850806264977
 30
0.0
 10
60.0554504897941399
 20
19.2499925410346364
 30
0.0
 10
60.1680404804784246
 20
19.2781400387057005
 30
0.0
  0
SPLINE
  5
81
  8
0
 62
7
370
9
  6
ByLayer
100
AcDbEntity
100
AcDbSpline
 70
8
 71
3
 72
15
 73
11
 74
0
 40
0.0
 40
0.0
 40
0.0
 40
0.0
 40
0.125
 40
0.25
 40
0.375
 40
0.5
 40
0.625
 40
0.75
 40
0.875
 40
1.0
 40
1.0
 40
1.0
 40
1.0
 10
62.8139052615587161
 20
10.2990882816353864
 30
0.0
 10
62.1946603127952358
 20
10.7494482443724557
 30
0.0
 10
61.6598578570449547
 20
11.2842507001227244
 30
0.0
 10
61.3783828803342715
 20
12.1286756302547296
 30
0.0
 10
61.2657928896500437
 20
13.4234605231238042
 30
0.0
 10
61.2376453919789583
 20
14.6619504206507436
 30
0.0
 10
61.1250554012947021
 20
16.2382102902304837
 30
0.0
 10
60.8998754199261612
 20
17.6455851737838252
 30
0.0
 10
60.5339579502022787
 20
18.7714850806264977
 30
0.0
 10
60.2806304711627092
 20
19.2499925410346364
 30
0.0
 10
60.1680404804784246
 20
19.2781400387057005
 30
0.0
  0
SPLINE
  5
82
  8
0
 62
7
370
9
  6
ByLayer
100
AcDbEntity
100
AcDbSpline
 70
8
 71
3
 72
15
 73
11
 74
0
 40
0.0
 40
0.0
 40
0.0
 40
0.0
 40
0.125
 40
0.25
 40
0.375
 40
0.5
 40
0.625
 40
0.75
 40
0.875
 40
1.0
 40
1.0
 40
1.0
 40
1.0
 10
62.8139052615587161
 20
10.2990882816353864
 30
0.0
 10
63.433150210322168
 20
10.7494482443724557
 30
0.0
 10
63.9679526660724491
 20
11.2842507001227244
 30
0.0
 10
64.2494276427831323
 20
12.1286756302547296
 30
0.0
 10
64.3620176334673886
 20
13.4234605231238024
 30
0.0
 10
64.3901651311384455
 20
14.6619504206507436
 30
0.0
 10
64.5027551218227302
 20
16.2382102902304837
 30
0.0
 10
64.7279351031912427
 20
17.6455851737838252
 30
0.0
 10
65.0938525729151252
 20
18.7714850806264977
 30
0.0
 10
65.347180051954723
 20
19.2499925410346364
 30
0.0
 10
65.4597700426390077
 20
19.2781400387057005
 30
0.0
  0
SPLINE
  5
83
  8
0
 62
7
370
9
  6
ByLayer
100
AcDbEntity
100
AcDbSpline
 70
8
 71
3
 72
15
 73
11
 74
0
 40
0.0
 40
0.0
 40
0.0
 40
0.0
 40
0.125
 40
0.25
 40
0.375
 40
0.5
 40
0.625
 40
0.75
 40
0.875
 40
1.0
 40
1.0
 40
1.0
 40
1.0
 10
68.1056348237192992
 20
10.2990882816353846
 30
0.0
 10
67.4863898749558189
 20
10.7494482443724557
 30
0.0
 10
66.9515874192055378
 20
11.2842507001227244
 30
0.0
 10
66.6701124424948546
 20
12.1286756302547296
 30
0.0
 10
66.5575224518106268
 20
13.4234605231238042
 30
0.0
 10
66.5293749541395414
 20
14.6619504206507436
 30
0.0
 10
66.4167849634552852
 20
16.2382102902304837
 30
0.0
 10
66.1916049820867443
 20
17.6455851737838252
 30
0.0
 10
65.8256875123628618
 20
18.7714850806264977
 30
0.0
 10
65.5723600333232923
 20
19.2499925410346364
 30
0.0
 10
65.4597700426390077
 20
19.2781400387057005
 30
0.0
  0
SPLINE
  5
84
  8
0
 62
7
370
9
  6
ByLayer
100
AcDbEntity
100
AcDbSpline
 70
8
 71
3
 72
15
 73
11
 74
0
 40
0.0
 40
0.0
 40
0.0
 40
0.0
 40
0.125
 40
0.25
 40
0.375
 40
0.5
 40
0.625
 40
0.75
 40
0.875
 40
1.0
 40
1.0
 40
1.0
 40
1.0
 10
68.1056348237192992
 20
10.2990882816353846
 30
0.0
 10
68.7248797724827512
 20
10.7494482443724539
 30
0.0
 10
69.2596822282330322
 20
11.2842507001227244
 30
0.0
 10
69.5411572049437154
 20
12.1286756302547296
 30
0.0
 10
69.6537471956279717
 20
13.4234605231238024
 30
0.0
 10
69.6818946932990286
 20
14.6619504206507436
 30
0.0
 10
69.7944846839833133
 20
16.2382102902304837
 30
0.0
 10
70.0196646653518258
 20
17.6455851737838252
 30
0.0
 10
70.3855821350757083
 20
18.7714850806264977
 30
0.0
 10
70.6389096141153061
 20
19.2499925410346364
 30
0.0
 10
70.7514996047995908
 20
19.2781400387057005
 30
0.0
  0
SPLINE
  5
85
  8
0
 62
7
370
9
  6
ByLayer
100
AcDbEntity
100
AcDbSpline
 70
8
 71
3
 72
15
 73
11
 74
0
 40
0.0
 40
0.0
 40
0.0
 40
0.0
 40
0.125
 40
0.25
 40
0.375
 40
0.5
 40
0.625
 40
0.75
 40
0.875
 40
1.0
 40
1.0
 40
1.0
 40
1.0
 10
73.3973643858798823
 20
10.2990882816353846
 30
0.0
 10
72.778119437116402
 20
10.7494482443724557
 30
0.0
 10
72.2433169813661209
 20
11.2842507001227244
 30
0.0
 10
71.9618420046554377
 20
12.1286756302547296
 30
0.0
 10
71.8492520139712099
 20
13.4234605231238042
 30
0.0
 10
71.8211045163001245
 20
14.6619504206507436
 30
0.0
 10
71.7085145256158683
 20
16.2382102902304837
 30
0.0
 10
71.4833345442473274
 20
17.6455851737838252
 30
0.0
 10
71.1174170745234449
 20
18.7714850806264977
 30
0.0
 10
70.8640895954838754
 20
19.2499925410346364
 30
0.0
 10
70.7514996047995908
 20
19.2781400387057005
 30
0.0
  0
SPLINE
  5
86
  8
0
 62
7
370
9
  6
ByLayer
100
AcDbEntity
100
AcDbSpline
 70
8
 71
3
 72
15
 73
11
 74
0
 40
0.0
 40
0.0
 40
0.0
 40
0.0
 40
0.125
 40
0.25
 40
0.375
 40
0.5
 40
0.625
 40
0.75
 40
0.875
 40
1.0
 40
1.0
 40
1.0
 40
1.0
 10
73.3973643858798823
 20
10.2990882816353846
 30
0.0
 10
74.0166093346433343
 20
10.7494482443724539
 30
0.0
 10
74.5514117903936153
 20
11.2842507001227244
 30
0.0
 10
74.8328867671042985
 20
12.1286756302547296
 30
0.0
 10
74.9454767577885548
 20
13.4234605231238024
 30
0.0
 10
74.9736242554596117
 20
14.6619504206507436
 30
0.0
 10
75.0862142461438964
 20
16.2382102902304837
 30
0.0
 10
75.3113942275124089
 20
17.6455851737838252
 30
0.0
 10
75.6773116972362914
 20
18.7714850806264977
 30
0.0
 10
75.9306391762758892
 20
19.2499925410346364
 30
0.0
 10
76.0432291669601739
 20
19.2781400387057005
 30
0.0
  0
SPLINE
  5
87
  8
0
 62
7
370
9
  6
ByLayer
100
AcDbEntity
100
AcDbSpline
 70
8
 71
3
 72
15
 73
11
 74
0
 40
0.0
 40
0.0
 40
0.0
 40
0.0
 40
0.125
 40
0.25
 40
0.375
 40
0.5
 40
0.625
 40
0.75
 40
0.875
 40
1.0
 40
1.0
 40
1.0
 40
1.0
 10
78.6890939480404654
 20
10.2990882816353846
 30
0.0
 10
78.0698489992769851
 20
10.7494482443724557
 30
0.0
 10
77.535046543526704
 20
11.2842507001227226
 30
0.0
 10
77.2535715668160208
 20
12.1286756302547296
 30
0.0
 10
77.140981576131793
 20
13.4234605231238042
 30
0.0
 10
77.1128340784607076
 20
14.6619504206507436
 30
0.0
 10
77.0002440877764514
 20
16.2382102902304837
 30
0.0
 10
76.7750641064079105
 20
17.6455851737838252
 30
0.0
 10
76.409146636684028
 20
18.7714850806264977
 30
0.0
 10
76.1558191576444585
 20
19.2499925410346364
 30
0.0
 10
76.0432291669601739
 20
19.2781400387057005
 30
0.0
  0
SPLINE
  5
88
  8
0
 62
7
370
9
  6
ByLayer
100
AcDbEntity
100
AcDbSpline
 70
8
 71
3
 72
15
 73
11
 74
0
 40
0.0
 40
0.0
 40
0.0
 40
0.0
 40
0.125
 40
0.25
 40
0.375
 40
0.5
 40
0.625
 40
0.75
 40
0.875
 40
1.0
 40
1.0
 40
1.0
 40
1.0
 10
78.703167696875056
 20
10.3061251560531577
 30
0.0
 10
79.3224126456385363
 20
10.7564851187902271
 30
0.0
 10
79.857215101388789
 20
11.2912875745404975
 30
0.0
 10
80.1386900780994722
 20
12.135712504672501
 30
0.0
 10
80.2512800687837284
 20
13.4304973975415756
 30
0.0
 10
80.2794275664548138
 20
14.668987295068515
 30
0.0
 10
80.39201755713907
 20
16.245247164648255
 30
0.0
 10
80.6171975385076109
 20
17.6526220482015965
 30
0.0
 10
80.983115008231465
 20
18.778521955044269
 30
0.0
 10
81.2364424872710629
 20
19.2570294154524078
 30
0.0
 10
81.3490324779553475
 20
19.2851769131234718
 30
0.0
  0
SPLINE
  5
89
  8
0
 62
7
370
9
  6
ByLayer
100
AcDbEntity
100
AcDbSpline
 70
8
 71
3
 72
15
 73
11
 74
0
 40
0.0
 40
0.0
 40
0.0
 40
0.0
 40
0.125
 40
0.25
 40
0.375
 40
0.5
 40
0.625
 40
0.75
 40
0.875
 40
1.0
 40
1.0
 40
1.0
 40
1.0
 10
83.9948972590356391
 20
10.3061251560531577
 30
0.0
 10
83.3756523102721587
 20
10.7564851187902288
 30
0.0
 10
82.8408498545219061
 20
11.2912875745404975
 30
0.0
 10
82.5593748778112229
 20
12.135712504672501
 30
0.0
 10
82.4467848871269666
 20
13.4304973975415756
 30
0.0
 10
82.4186373894558812
 20
14.668987295068515
 30
0.0
 10
82.306047398771625
 20
16.245247164648255
 30
0.0
 10
82.0808674174030841
 20
17.6526220482015965
 30
0.0
 10
81.71494994767923
 20
18.778521955044269
 30
0.0
 10
81.4616224686396322
 20
19.2570294154524078
 30
0.0
 10
81.3490324779553475
 20
19.2851769131234718
 30
0.0
  0
SPLINE
  5
8A
  8
0
 62
7
370
9
  6
ByLayer
100
AcDbEntity
100
AcDbSpline
 70
8
 71
3
 72
15
 73
11
 74
0
 40
0.0
 40
0.0
 40
0.0
 40
0.0
 40
0.125
 40
0.25
 40
0.375
 40
0.5
 40
0.625
 40
0.75
 40
0.875
 40
1.0
 40
1.0
 40
1.0
 40
1.0
 10
83.9948972590356391
 20
10.3061251560531577
 30
0.0
 10
84.6141422077991194
 20
10.7564851187902271
 30
0.0
 10
85.1489446635493721
 20
11.2912875745404975
 30
0.0
 10
85.4304196402600553
 20
12.135712504672501
 30
0.0
 10
85.5430096309443115
 20
13.4304973975415738
 30
0.0
 10
85.5711571286153969
 20
14.668987295068515
 30
0.0
 10
85.6837471192996531
 20
16.245247164648255
 30
0.0
 10
85.908927100668194
 20
17.6526220482015965
 30
0.0
 10
86.2748445703920481
 20
18.778521955044269
 30
0.0
 10
86.528172049431646
 20
19.2570294154524078
 30
0.0
 10
86.6407620401159306
 20
19.2851769131234718
 30
0.0
  0
SPLINE
  5
8B
  8
0
 62
7
370
9
  6
ByLayer
100
AcDbEntity
100
AcDbSpline
 70
8
 71
3
 72
15
 73
11
 74
0
 40
0.0
 40
0.0
 40
0.0
 40
0.0
 40
0.125
 40
0.25
 40
0.375
 40
0.5
 40
0.625
 40
0.75
 40
0.875
 40
1.0
 40
1.0
 40
1.0
 40
1.0
 10
89.2866268211962222
 20
10.3061251560531577
 30
0.0
 10
88.6673818724327418
 20
10.7564851187902271
 30
0.0
 10
88.1325794166824892
 20
11.2912875745404957
 30
0.0
 10
87.851104439971806
 20
12.135712504672501
 30
0.0
 10
87.7385144492875497
 20
13.4304973975415756
 30
0.0
 10
87.7103669516164643
 20
14.668987295068515
 30
0.0
 10
87.5977769609322081
 20
16.245247164648255
 30
0.0
 10
87.3725969795636672
 20
17.6526220482015965
 30
0.0
 10
87.0066795098398131
 20
18.778521955044269
 30
0.0
 10
86.7533520308002153
 20
19.2570294154524078
 30
0.0
 10
86.6407620401159306
 20
19.2851769131234718
 30
0.0
  0
SPLINE
  5
8C
  8
0
 62
7
370
9
  6
ByLayer
100
AcDbEntity
100
AcDbSpline
 70
8
 71
3
 72
15
 73
11
 74
0
 40
0.0
 40
0.0
 40
0.0
 40
0.0
 40
0.125
 40
0.25
 40
0.375
 40
0.5
 40
0.625
 40
0.75
 40
0.875
 40
1.0
 40
1.0
 40
1.0
 40
1.0
 10
89.2866268211962222
 20
10.3061251560531577
 30
0.0
 10
89.9058717699597025
 20
10.7564851187902271
 30
0.0
 10
90.4406742257099552
 20
11.2912875745404957
 30
0.0
 10
90.7221492024206384
 20
12.135712504672501
 30
0.0
 10
90.8347391931048946
 20
13.4304973975415738
 30
0.0
 10
90.86288669077598
 20
14.668987295068515
 30
0.0
 10
90.9754766814602363
 20
16.245247164648255
 30
0.0
 10
91.2006566628287771
 20
17.6526220482015965
 30
0.0
 10
91.5665741325526312
 20
18.778521955044269
 30
0.0
 10
91.8199016115922291
 20
19.2570294154524078
 30
0.0
 10
91.9324916022765137
 20
19.2851769131234718
 30
0.0
  0
SPLINE
  5
8D
  8
0
 62
7
370
9
  6
ByLayer
100
AcDbEntity
100
AcDbSpline
 70
8
 71
3
 72
15
 73
11
 74
0
 40
0.0
 40
0.0
 40
0.0
 40
0.0
 40
0.125
 40
0.25
 40
0.375
 40
0.5
 40
0.625
 40
0.75
 40
0.875
 40
1.0
 40
1.0
 40
1.0
 40
1.0
 10
94.5783563833568053
 20
10.3061251560531577
 30
0.0
 10
93.9591114345933249
 20
10.7564851187902271
 30
0.0
 10
93.4243089788430723
 20
11.2912875745404957
 30
0.0
 10
93.1428340021323891
 20
12.135712504672501
 30
0.0
 10
93.0302440114481328
 20
13.4304973975415756
 30
0.0
 10
93.0020965137770474
 20
14.668987295068515
 30
0.0
 10
92.8895065230927912
 20
16.245247164648255
 30
0.0
 10
92.6643265417242503
 20
17.6526220482015965
 30
0.0
 10
92.2984090720003962
 20
18.778521955044269
 30
0.0
 10
92.0450815929607984
 20
19.2570294154524078
 30
0.0
 10
91.9324916022765137
 20
19.2851769131234718
 30
0.0
  0
SPLINE
  5
8E
  8
0
 62
7
370
9
  6
ByLayer
100
AcDbEntity
100
AcDbSpline
 70
8
 71
3
 72
15
 73
11
 74
0
 40
0.0
 40
0.0
 40
0.0
 40
0.0
 40
0.125
 40
0.25
 40
0.375
 40
0.5
 40
0.625
 40
0.75
 40
0.875
 40
1.0
 40
1.0
 40
1.0
 40
1.0
 10
94.5783563833568053
 20
10.3061251560531577
 30
0.0
 10
95.1976013321202856
 20
10.7564851187902271
 30
0.0
 10
95.7324037878705383
 20
11.2912875745404957
 30
0.0
 10
96.0138787645812215
 20
12.135712504672501
 30
0.0
 10
96.1264687552654777
 20
13.4304973975415738
 30
0.0
 10
96.1546162529365631
 20
14.668987295068515
 30
0.0
 10
96.2672062436208194
 20
16.245247164648255
 30
0.0
 10
96.4923862249893602
 20
17.6526220482015965
 30
0.0
 10
96.8583036947132143
 20
18.778521955044269
 30
0.0
 10
97.1116311737528122
 20
19.2570294154524078
 30
0.0
 10
97.2242211644370968
 20
19.2851769131234718
 30
0.0
  0
SPLINE
  5
8F
  8
0
 62
7
370
9
  6
ByLayer
100
AcDbEntity
100
AcDbSpline
 70
8
 71
3
 72
15
 73
11
 74
0
 40
0.0
 40
0.0
 40
0.0
 40
0.0
 40
0.125
 40
0.25
 40
0.375
 40
0.5
 40
0.625
 40
0.75
 40
0.875
 40
1.0
 40
1.0
 40
1.0
 40
1.0
 10
99.8700859455173884
 20
10.3061251560531577
 30
0.0
 10
99.250840996753908
 20
10.7564851187902271
 30
0.0
 10
98.7160385410036554
 20
11.2912875745404957
 30
0.0
 10
98.4345635642929722
 20
12.135712504672501
 30
0.0
 10
98.3219735736087159
 20
13.4304973975415756
 30
0.0
 10
98.2938260759376305
 20
14.668987295068515
 30
0.0
 10
98.1812360852533743
 20
16.245247164648255
 30
0.0
 10
97.9560561038848334
 20
17.6526220482015965
 30
0.0
 10
97.5901386341609793
 20
18.778521955044269
 30
0.0
 10
97.3368111551213815
 20
19.2570294154524078
 30
0.0
 10
97.2242211644370968
 20
19.2851769131234718
 30
0.0
  0
SPLINE
  5
90
  8
0
 62
7
370
9
  6
ByLayer
100
AcDbEntity
100
AcDbSpline
 70
8
 71
3
 72
15
 73
11
 74
0
 40
0.0
 40
0.0
 40
0.0
 40
0.0
 40
0.125
 40
0.25
 40
0.375
 40
0.5
 40
0.625
 40
0.75
 40
0.875
 40
1.0
 40
1.0
 40
1.0
 40
1.0
 10
110.1347571352463888
 20
59.0758567592568156
 30
0.0
 10
111.5428192135678103
 20
56.7582924063353218
 30
0.0
 10
111.4548582833457147
 20
54.251405895005945
 30
0.0
 10
112.3344675855665571
 20
45.4113324076865794
 30
0.0
 10
112.664145152038742
 20
29.7335280486233238
 30
0.0
 10
113.293241724987098
 20
20.4040399455482984
 30
0.0
 10
116.2550855320465928
 20
13.4418292392553038
 30
0.0
 10
115.5098571665835721
 20
14.9504622717791449
 30
0.0
 10
117.0067048088467629
 20
12.5613609435752736
 30
0.0
 10
117.8656982680467706
 20
11.358770100695228
 30
0.0
 10
119.6437030594417195
 20
10.2709407839643241
 30
0.0
  0
SPLINE
  5
91
  8
0
 62
7
370
9
  6
ByLayer
100
AcDbEntity
100
AcDbSpline
 70
8
 71
3
 72
15
 73
11
 74
0
 40
0.0
 40
0.0
 40
0.0
 40
0.0
 40
0.125
 40
0.25
 40
0.375
 40
0.5
 40
0.625
 40
0.75
 40
0.875
 40
1.0
 40
1.0
 40
1.0
 40
1.0
 10
109.6784168600480029
 20
59.0758567592568156
 30
0.0
 10
108.2703547817265815
 20
56.7582924063353218
 30
0.0
 10
108.3583157119486771
 20
54.251405895005945
 30
0.0
 10
107.4787064097278062
 20
45.4113324076865794
 30
0.0
 10
107.1490288432556497
 20
29.7335280486233238
 30
0.0
 10
106.5199322703072937
 20
20.4040399455482984
 30
0.0
 10
103.5580884632477705
 20
13.441829239255302
 30
0.0
 10
104.3033168287108197
 20
14.9504622717791449
 30
0.0
 10
102.8064691864476288
 20
12.5613609435752753
 30
0.0
 10
101.9474757272476211
 20
11.3587701006952351
 30
0.0
 10
99.8700859455173884
 20
10.3061251560531577
 30
0.0
  0
SPLINE
  5
92
  8
0
 62
7
370
9
  6
ByLayer
100
AcDbEntity
100
AcDbSpline
 70
8
 71
3
 72
15
 73
11
 74
0
 40
0.0
 40
0.0
 40
0.0
 40
0.0
 40
0.125
 40
0.25
 40
0.375
 40
0.5
 40
0.625
 40
0.75
 40
0.875
 40
1.0
 40
1.0
 40
1.0
 40
1.0
 10
119.65777680827631
 20
10.2779776583820972
 30
0.0
 10
120.2770217570397904
 20
10.7283376211191666
 30
0.0
 10
120.8118242127900714
 20
11.263140076869437
 30
0.0
 10
121.0932991895007547
 20
12.1075650070014404
 30
0.0
 10
121.2058891801849825
 20
13.4023498998705151
 30
0.0
 10
121.2340366778560679
 20
14.6408397973974544
 30
0.0
 10
121.3466266685403241
 20
16.2170996669771945
 30
0.0
 10
121.571806649908865
 20
17.624474550530536
 30
0.0
 10
121.9377241196327475
 20
18.7503744573732085
 30
0.0
 10
122.1910515986723169
 20
19.2288819177813437
 30
0.0
 10
122.3036415893566016
 20
19.2570294154524149
 30
0.0
  0
SPLINE
  5
93
  8
0
 62
7
370
9
  6
ByLayer
100
AcDbEntity
100
AcDbSpline
 70
8
 71
3
 72
15
 73
11
 74
0
 40
0.0
 40
0.0
 40
0.0
 40
0.0
 40
0.125
 40
0.25
 40
0.375
 40
0.5
 40
0.625
 40
0.75
 40
0.875
 40
1.0
 40
1.0
 40
1.0
 40
1.0
 10
124.9495063704368931
 20
10.2779776583820972
 30
0.0
 10
124.3302614216734412
 20
10.7283376211191666
 30
0.0
 10
123.7954589659231601
 20
11.2631400768694352
 30
0.0
 10
123.5139839892124769
 20
12.1075650070014404
 30
0.0
 10
123.4013939985282207
 20
13.4023498998705151
 30
0.0
 10
123.3732465008571637
 20
14.6408397973974544
 30
0.0
 10
123.2606565101728791
 20
16.2170996669771945
 30
0.0
 10
123.0354765288043666
 20
17.624474550530536
 30
0.0
 10
122.6695590590804841
 20
18.7503744573732085
 30
0.0
 10
122.4162315800408862
 20
19.2288819177813437
 30
0.0
 10
122.3036415893566016
 20
19.2570294154524149
 30
0.0
  0
SPLINE
  5
94
  8
0
 62
7
370
9
  6
ByLayer
100
AcDbEntity
100
AcDbSpline
 70
8
 71
3
 72
15
 73
11
 74
0
 40
0.0
 40
0.0
 40
0.0
 40
0.0
 40
0.125
 40
0.25
 40
0.375
 40
0.5
 40
0.625
 40
0.75
 40
0.875
 40
1.0
 40
1.0
 40
1.0
 40
1.0
 10
124.9495063704368931
 20
10.2779776583820972
 30
0.0
 10
125.5687513192003735
 20
10.7283376211191666
 30
0.0
 10
126.1035537749506545
 20
11.2631400768694352
 30
0.0
 10
126.3850287516613378
 20
12.1075650070014404
 30
0.0
 10
126.4976187423455656
 20
13.4023498998705133
 30
0.0
 10
126.525766240016651
 20
14.6408397973974544
 30
0.0
 10
126.6383562307009072
 20
16.2170996669771945
 30
0.0
 10
126.8635362120694481
 20
17.624474550530536
 30
0.0
 10
127.2294536817933306
 20
18.7503744573732085
 30
0.0
 10
127.4827811608329
 20
19.2288819177813437
 30
0.0
 10
127.5953711515171847
 20
19.2570294154524149
 30
0.0
  0
SPLINE
  5
95
  8
0
 62
7
370
9
  6
ByLayer
100
AcDbEntity
100
AcDbSpline
 70
8
 71
3
 72
15
 73
11
 74
0
 40
0.0
 40
0.0
 40
0.0
 40
0.0
 40
0.125
 40
0.25
 40
0.375
 40
0.5
 40
0.625
 40
0.75
 40
0.875
 40
1.0
 40
1.0
 40
1.0
 40
1.0
 10
130.2412359325974762
 20
10.2779776583820972
 30
0.0
 10
129.6219909838340243
 20
10.7283376211191666
 30
0.0
 10
129.0871885280837432
 20
11.2631400768694352
 30
0.0
 10
128.80571355137306
 20
12.1075650070014404
 30
0.0
 10
128.6931235606888038
 20
13.4023498998705151
 30
0.0
 10
128.6649760630177468
 20
14.6408397973974544
 30
0.0
 10
128.5523860723334622
 20
16.2170996669771945
 30
0.0
 10
128.3272060909649497
 20
17.624474550530536
 30
0.0
 10
127.9612886212410672
 20
18.7503744573732085
 30
0.0
 10
127.7079611422014693
 20
19.2288819177813437
 30
0.0
 10
127.5953711515171847
 20
19.2570294154524149
 30
0.0
  0
SPLINE
  5
96
  8
0
 62
7
370
9
  6
ByLayer
100
AcDbEntity
100
AcDbSpline
 70
8
 71
3
 72
15
 73
11
 74
0
 40
0.0
 40
0.0
 40
0.0
 40
0.0
 40
0.125
 40
0.25
 40
0.375
 40
0.5
 40
0.625
 40
0.75
 40
0.875
 40
1.0
 40
1.0
 40
1.0
 40
1.0
 10
130.2412359325974762
 20
10.2779776583820972
 30
0.0
 10
130.8604808813609566
 20
10.7283376211191666
 30
0.0
 10
131.3952833371112376
 20
11.2631400768694352
 30
0.0
 10
131.6767583138219209
 20
12.1075650070014404
 30
0.0
 10
131.7893483045061487
 20
13.4023498998705133
 30
0.0
 10
131.8174958021772341
 20
14.6408397973974544
 30
0.0
 10
131.9300857928614903
 20
16.2170996669771945
 30
0.0
 10
132.1552657742300312
 20
17.624474550530536
 30
0.0
 10
132.5211832439539137
 20
18.7503744573732085
 30
0.0
 10
132.7745107229934831
 20
19.2288819177813437
 30
0.0
 10
132.8871007136777678
 20
19.2570294154524149
 30
0.0
  0
SPLINE
  5
97
  8
0
 62
7
370
9
  6
ByLayer
100
AcDbEntity
100
AcDbSpline
 70
8
 71
3
 72
15
 73
11
 74
0
 40
0.0
 40
0.0
 40
0.0
 40
0.0
 40
0.125
 40
0.25
 40
0.375
 40
0.5
 40
0.625
 40
0.75
 40
0.875
 40
1.0
 40
1.0
 40
1.0
 40
1.0
 10
135.5329654947580593
 20
10.2779776583820954
 30
0.0
 10
134.9137205459946074
 20
10.7283376211191666
 30
0.0
 10
134.3789180902443263
 20
11.2631400768694352
 30
0.0
 10
134.0974431135336431
 20
12.1075650070014404
 30
0.0
 10
133.9848531228493869
 20
13.4023498998705151
 30
0.0
 10
133.9567056251783299
 20
14.6408397973974544
 30
0.0
 10
133.8441156344940453
 20
16.2170996669771945
 30
0.0
 10
133.6189356531255328
 20
17.624474550530536
 30
0.0
 10
133.2530181834016503
 20
18.7503744573732085
 30
0.0
 10
132.9996907043620524
 20
19.2288819177813437
 30
0.0
 10
132.8871007136777678
 20
19.2570294154524149
 30
0.0
  0
SPLINE
  5
98
  8
0
 62
7
370
9
  6
ByLayer
100
AcDbEntity
100
AcDbSpline
 70
8
 71
3
 72
15
 73
11
 74
0
 40
0.0
 40
0.0
 40
0.0
 40
0.0
 40
0.125
 40
0.25
 40
0.375
 40
0.5
 40
0.625
 40
0.75
 40
0.875
 40
1.0
 40
1.0
 40
1.0
 40
1.0
 10
135.5329654947580593
 20
10.2779776583820954
 30
0.0
 10
136.1522104435215397
 20
10.7283376211191648
 30
0.0
 10
136.6870128992718207
 20
11.2631400768694352
 30
0.0
 10
136.968487875982504
 20
12.1075650070014387
 30
0.0
 10
137.0810778666667318
 20
13.4023498998705133
 30
0.0
 10
137.1092253643378172
 20
14.6408397973974544
 30
0.0
 10
137.2218153550220734
 20
16.2170996669771945
 30
0.0
 10
137.4469953363906143
 20
17.624474550530536
 30
0.0
 10
137.8129128061144968
 20
18.7503744573732085
 30
0.0
 10
138.0662402851540662
 20
19.2288819177813437
 30
0.0
 10
138.1788302758383509
 20
19.2570294154524149
 30
0.0
  0
SPLINE
  5
99
  8
0
 62
7
370
9
  6
ByLayer
100
AcDbEntity
100
AcDbSpline
 70
8
 71
3
 72
15
 73
11
 74
0
 40
0.0
 40
0.0
 40
0.0
 40
0.0
 40
0.125
 40
0.25
 40
0.375
 40
0.5
 40
0.625
 40
0.75
 40
0.875
 40
1.0
 40
1.0
 40
1.0
 40
1.0
 10
140.8246950569186424
 20
10.2779776583820954
 30
0.0
 10
140.2054501081551905
 20
10.7283376211191666
 30
0.0
 10
139.6706476524049094
 20
11.2631400768694352
 30
0.0
 10
139.3891726756942262
 20
12.1075650070014387
 30
0.0
 10
139.27658268500997
 20
13.4023498998705151
 30
0.0
 10
139.248435187338913
 20
14.6408397973974544
 30
0.0
 10
139.1358451966546284
 20
16.2170996669771945
 30
0.0
 10
138.9106652152861159
 20
17.624474550530536
 30
0.0
 10
138.5447477455622334
 20
18.7503744573732085
 30
0.0
 10
138.2914202665226355
 20
19.2288819177813437
 30
0.0
 10
138.1788302758383509
 20
19.2570294154524149
 30
0.0
  0
SPLINE
  5
9A
  8
0
 62
7
370
9
  6
ByLayer
100
AcDbEntity
100
AcDbSpline
 70
8
 71
3
 72
15
 73
11
 74
0
 40
0.0
 40
0.0
 40
0.0
 40
0.0
 40
0.125
 40
0.25
 40
0.375
 40
0.5
 40
0.625
 40
0.75
 40
0.875
 40
1.0
 40
1.0
 40
1.0
 40
1.0
 10
140.838768805753233
 20
10.2850145327998685
 30
0.0
 10
141.4580137545167133
 20
10.7353744955369379
 30
0.0
 10
141.9928162102669944
 20
11.2701769512872083
 30
0.0
 10
142.2742911869776776
 20
12.1146018814192118
 30
0.0
 10
142.3868811776619054
 20
13.4093867742882864
 30
0.0
 10
142.4150286753329908
 20
14.6478766718152258
 30
0.0
 10
142.5276186660172755
 20
16.2241365413949659
 30
0.0
 10
142.7527986473857879
 20
17.6315114249483074
 30
0.0
 10
143.1187161171096704
 20
18.7574113317909834
 30
0.0
 10
143.3720435961492683
 20
19.235918792199115
 30
0.0
 10
143.484633586833553
 20
19.2640662898701862
 30
0.0
  0
SPLINE
  5
9B
  8
0
 62
7
370
9
  6
ByLayer
100
AcDbEntity
100
AcDbSpline
 70
8
 71
3
 72
15
 73
11
 74
0
 40
0.0
 40
0.0
 40
0.0
 40
0.0
 40
0.125
 40
0.25
 40
0.375
 40
0.5
 40
0.625
 40
0.75
 40
0.875
 40
1.0
 40
1.0
 40
1.0
 40
1.0
 10
146.1304983679138161
 20
10.2850145327998685
 30
0.0
 10
145.5112534191503642
 20
10.7353744955369397
 30
0.0
 10
144.9764509634000831
 20
11.2701769512872083
 30
0.0
 10
144.6949759866893999
 20
12.1146018814192118
 30
0.0
 10
144.582385996005172
 20
13.4093867742882864
 30
0.0
 10
144.5542384983340867
 20
14.6478766718152258
 30
0.0
 10
144.441648507649802
 20
16.2241365413949659
 30
0.0
 10
144.2164685262812895
 20
17.6315114249483074
 30
0.0
 10
143.850551056557407
 20
18.7574113317909834
 30
0.0
 10
143.5972235775178092
 20
19.235918792199115
 30
0.0
 10
143.484633586833553
 20
19.2640662898701862
 30
0.0
  0
SPLINE
  5
9C
  8
0
 62
7
370
9
  6
ByLayer
100
AcDbEntity
100
AcDbSpline
 70
8
 71
3
 72
15
 73
11
 74
0
 40
0.0
 40
0.0
 40
0.0
 40
0.0
 40
0.125
 40
0.25
 40
0.375
 40
0.5
 40
0.625
 40
0.75
 40
0.875
 40
1.0
 40
1.0
 40
1.0
 40
1.0
 10
146.1304983679138161
 20
10.2850145327998685
 30
0.0
 10
146.7497433166772964
 20
10.7353744955369379
 30
0.0
 10
147.2845457724275775
 20
11.2701769512872083
 30
0.0
 10
147.5660207491382607
 20
12.1146018814192118
 30
0.0
 10
147.6786107398224885
 20
13.4093867742882864
 30
0.0
 10
147.7067582374935739
 20
14.6478766718152258
 30
0.0
 10
147.8193482281778586
 20
16.2241365413949659
 30
0.0
 10
148.044528209546371
 20
17.6315114249483074
 30
0.0
 10
148.4104456792702535
 20
18.7574113317909834
 30
0.0
 10
148.6637731583098514
 20
19.235918792199115
 30
0.0
 10
148.7763631489941361
 20
19.2640662898701862
 30
0.0
  0
SPLINE
  5
9D
  8
0
 62
7
370
9
  6
ByLayer
100
AcDbEntity
100
AcDbSpline
 70
8
 71
3
 72
15
 73
11
 74
0
 40
0.0
 40
0.0
 40
0.0
 40
0.0
 40
0.125
 40
0.25
 40
0.375
 40
0.5
 40
0.625
 40
0.75
 40
0.875
 40
1.0
 40
1.0
 40
1.0
 40
1.0
 10
151.4222279300743992
 20
10.2850145327998685
 30
0.0
 10
150.8029829813109473
 20
10.7353744955369379
 30
0.0
 10
150.2681805255606662
 20
11.2701769512872065
 30
0.0
 10
149.986705548849983
 20
12.1146018814192118
 30
0.0
 10
149.8741155581657551
 20
13.4093867742882864
 30
0.0
 10
149.8459680604946698
 20
14.6478766718152258
 30
0.0
 10
149.7333780698103851
 20
16.2241365413949659
 30
0.0
 10
149.5081980884418726
 20
17.6315114249483074
 30
0.0
 10
149.1422806187179901
 20
18.7574113317909834
 30
0.0
 10
148.8889531396783923
 20
19.235918792199115
 30
0.0
 10
148.7763631489941361
 20
19.2640662898701862
 30
0.0
  0
SPLINE
  5
9E
  8
0
 62
7
370
9
  6
ByLayer
100
AcDbEntity
100
AcDbSpline
 70
8
 71
3
 72
15
 73
11
 74
0
 40
0.0
 40
0.0
 40
0.0
 40
0.0
 40
0.125
 40
0.25
 40
0.375
 40
0.5
 40
0.625
 40
0.75
 40
0.875
 40
1.0
 40
1.0
 40
1.0
 40
1.0
 10
151.4222279300743992
 20
10.2850145327998685
 30
0.0
 10
152.0414728788378795
 20
10.7353744955369379
 30
0.0
 10
152.5762753345881606
 20
11.2701769512872065
 30
0.0
 10
152.8577503112988438
 20
12.1146018814192118
 30
0.0
 10
152.9703403019830716
 20
13.4093867742882864
 30
0.0
 10
152.998487799654157
 20
14.6478766718152258
 30
0.0
 10
153.1110777903384417
 20
16.2241365413949659
 30
0.0
 10
153.3362577717069541
 20
17.6315114249483074
 30
0.0
 10
153.7021752414308366
 20
18.7574113317909834
 30
0.0
 10
153.9555027204704345
 20
19.235918792199115
 30
0.0
 10
154.0680927111547192
 20
19.2640662898701862
 30
0.0
  0
SPLINE
  5
9F
  8
0
 62
7
370
9
  6
ByLayer
100
AcDbEntity
100
AcDbSpline
 70
8
 71
3
 72
15
 73
11
 74
0
 40
0.0
 40
0.0
 40
0.0
 40
0.0
 40
0.125
 40
0.25
 40
0.375
 40
0.5
 40
0.625
 40
0.75
 40
0.875
 40
1.0
 40
1.0
 40
1.0
 40
1.0
 10
156.7139574922349823
 20
10.2850145327998685
 30
0.0
 10
156.0947125434715304
 20
10.7353744955369379
 30
0.0
 10
155.5599100877212493
 20
11.2701769512872065
 30
0.0
 10
155.2784351110105661
 20
12.1146018814192118
 30
0.0
 10
155.1658451203263382
 20
13.4093867742882864
 30
0.0
 10
155.1376976226552529
 20
14.6478766718152258
 30
0.0
 10
155.0251076319709682
 20
16.2241365413949659
 30
0.0
 10
154.7999276506024557
 20
17.6315114249483074
 30
0.0
 10
154.4340101808785732
 20
18.7574113317909834
 30
0.0
 10
154.1806827018389754
 20
19.235918792199115
 30
0.0
 10
154.0680927111547192
 20
19.2640662898701862
 30
0.0
  0
SPLINE
  5
A0
  8
0
 62
7
370
9
  6
ByLayer
100
AcDbEntity
100
AcDbSpline
 70
8
 71
3
 72
15
 73
11
 74
0
 40
0.0
 40
0.0
 40
0.0
 40
0.0
 40
0.125
 40
0.25
 40
0.375
 40
0.5
 40
0.625
 40
0.75
 40
0.875
 40
1.0
 40
1.0
 40
1.0
 40
1.0
 10
156.7139574922349823
 20
10.2850145327998685
 30
0.0
 10
157.3332024409984626
 20
10.7353744955369379
 30
0.0
 10
157.8680048967487437
 20
11.2701769512872065
 30
0.0
 10
158.1494798734594269
 20
12.1146018814192118
 30
0.0
 10
158.2620698641436547
 20
13.4093867742882864
 30
0.0
 10
158.2902173618147401
 20
14.6478766718152258
 30
0.0
 10
158.4028073524990248
 20
16.2241365413949659
 30
0.0
 10
158.6279873338675372
 20
17.6315114249483074
 30
0.0
 10
158.9939048035914197
 20
18.7574113317909834
 30
0.0
 10
159.2472322826310176
 20
19.235918792199115
 30
0.0
 10
159.3598222733153023
 20
19.2640662898701862
 30
0.0
  0
SPLINE
  5
A1
  8
0
 62
7
370
9
  6
ByLayer
100
AcDbEntity
100
AcDbSpline
 70
8
 71
3
 72
15
 73
11
 74
0
 40
0.0
 40
0.0
 40
0.0
 40
0.0
 40
0.125
 40
0.25
 40
0.375
 40
0.5
 40
0.625
 40
0.75
 40
0.875
 40
1.0
 40
1.0
 40
1.0
 40
1.0
 10
162.0056870543955654
 20
10.2850145327998685
 30
0.0
 10
161.386442105632085
 20
10.7353744955369379
 30
0.0
 10
160.8516396498818324
 20
11.2701769512872065
 30
0.0
 10
160.5701646731711492
 20
12.1146018814192118
 30
0.0
 10
160.4575746824869213
 20
13.4093867742882864
 30
0.0
 10
160.4294271848158075
 20
14.6478766718152258
 30
0.0
 10
160.3168371941315797
 20
16.2241365413949659
 30
0.0
 10
160.0916572127630104
 20
17.6315114249483074
 30
0.0
 10
159.7257397430391563
 20
18.7574113317909834
 30
0.0
 10
159.4724122639995869
 20
19.235918792199115
 30
0.0
 10
159.3598222733153023
 20
19.2640662898701862
 30
0.0
  0
LINE
  5
A2
100
AcDbEntity
100
AcDbLine
  8
0
 62
7
370
9
  6
ByLayer
 10
-93.03131163398686
 20
9.1028196306150235
 30
0.0
 11
169.3847039910228034
 21
9.1028196306150235
 31
0.0
  0
ENDSEC
  0
SECTION
  2
OBJECTS
  0
DICTIONARY
  5
C
100
AcDbDictionary
280
0
281
1
  3
ACAD_GROUP
350
D
  3
ACAD_LAYOUT
350
1A
  3
ACAD_MLINESTYLE
350
17
  3
ACAD_PLOTSETTINGS
350
19
  3
ACAD_PLOTSTYLENAME
350
E
  3
AcDbVariableDictionary
350
A3
  0
DICTIONARY
  5
D
100
AcDbDictionary
280
0
281
1
  0
ACDBDICTIONARYWDFLT
  5
E
100
AcDbDictionary
281
1
  3
Normal
350
F
100
AcDbDictionaryWithDefault
340
F
  0
ACDBPLACEHOLDER
  5
F
  0
DICTIONARY
  5
17
100
AcDbDictionary
280
0
281
1
  3
Standard
350
18
  0
MLINESTYLE
  5
18
100
AcDbMlineStyle
  2
STANDARD
 70
0
  3

 62
256
 51
90.0
 52
90.0
 71
2
 49
0.5
 62
256
  6
BYLAYER
 49
-0.5
 62
256
  6
BYLAYER
  0
DICTIONARY
  5
19
100
AcDbDictionary
280
0
281
1
  0
DICTIONARY
  5
1A
100
AcDbDictionary
281
1
  3
Layout1
350
1E
  3
Layout2
350
26
  3
Model
350
22
  0
LAYOUT
  5
1E
100
AcDbPlotSettings
  1

  2
C:\Program Files\AutoCAD 2002\plotters\DWF ePlot (optimized for plotting).pc3
  4

  6

 40
0.0
 41
0.0
 42
0.0
 43
0.0
 44
0.0
 45
0.0
 46
0.0
 47
0.0
 48
0.0
 49
0.0
140
0.0
141
0.0
142
1.0
143
1.0
 70
688
 72
0
 73
0
 74
5
  7

 75
16
147
1.0
148
0.0
149
0.0
100
AcDbLayout
  1
Layout1
 70
1
 71
1
 10
0.0
 20
0.0
 11
420.0
 21
297.0
 12
0.0
 22
0.0
 32
0.0
 14
100000000000000000000.0
 24
100000000000000000000.0
 34
100000000000000000000.0
 15
-100000000000000000000.0
 25
-100000000000000000000.0
 35
-100000000000000000000.0
146
0.0
 13
0.0
 23
0.0
 33
0.0
 16
1.0
 26
0.0
 36
0.0
 17
0.0
 27
1.0
 37
0.0
 76
0
330
1B
  0
LAYOUT
  5
22
100
AcDbPlotSettings
  1

  2
C:\Program Files\AutoCAD 2002\plotters\DWF ePlot (optimized for plotting).pc3
  4

  6

 40
0.0
 41
0.0
 42
0.0
 43
0.0
 44
0.0
 45
0.0
 46
0.0
 47
0.0
 48
0.0
 49
0.0
140
0.0
141
0.0
142
1.0
143
1.0
 70
1712
 72
0
 73
0
 74
0
  7

 75
0
147
1.0
148
0.0
149
0.0
100
AcDbLayout
  1
Model
 70
1
 71
0
 10
0.0
 20
0.0
 11
12.0
 21
9.0
 12
0.0
 22
0.0
 32
0.0
 14
0.0
 24
0.0
 34
0.0
 15
0.0
 25
0.0
 35
0.0
146
0.0
 13
0.0
 23
0.0
 33
0.0
 16
1.0
 26
0.0
 36
0.0
 17
0.0
 27
1.0
 37
0.0
 76
0
330
1F
  0
LAYOUT
  5
26
100
AcDbPlotSettings
  1

  2
C:\Program Files\AutoCAD 2002\plotters\DWF ePlot (optimized for plotting).pc3
  4

  6

 40
0.0
 41
0.0
 42
0.0
 43
0.0
 44
0.0
 45
0.0
 46
0.0
 47
0.0
 48
0.0
 49
0.0
140
0.0
141
0.0
142
1.0
143
1.0
 70
688
 72
0
 73
0
 74
5
  7

 75
16
147
1.0
148
0.0
149
0.0
100
AcDbLayout
  1
Layout2
 70
1
 71
2
 10
0.0
 20
0.0
 11
12.0
 21
9.0
 12
0.0
 22
0.0
 32
0.0
 14
0.0
 24
0.0
 34
0.0
 15
0.0
 25
0.0
 35
0.0
146
0.0
 13
0.0
 23
0.0
 33
0.0
 16
1.0
 26
0.0
 36
0.0
 17
0.0
 27
1.0
 37
0.0
 76
0
330
23
  0
DICTIONARY
  5
A3
100
AcDbDictionary
281
1
  3
DIMASSOC
350
A5
  3
HIDETEXT
350
A4
  0
DICTIONARYVAR
  5
A4
100
DictionaryVariables
280
0
  1
2
  0
DICTIONARYVAR
  5
A5
100
DictionaryVariables
280
0
  1
1
  0
ENDSEC
  0
EOF
