999
dxflib 2.0.4.8
  0
SECTION
  2
HEADER
  9
$ACADVER
  1
AC1015
  9
$HANDSEED
  5
FFFF
  9
$DIMASZ
 40
2.5
  9
$DIMGAP
 40
0.625
  9
$INSUNITS
 70
4
  9
$DIMEXO
 40
0.625
  9
$DIMTXT
 40
2.5
  9
$DIMSTYLE
  2
Standard
  9
$PLIMMIN
 10
0.0
 20
0.0
  9
$PLIMMAX
 10
210.0
 20
297.0
  9
$DIMEXE
 40
1.25
  0
ENDSEC
  0
SECTION
  2
TABLES
  0
TABLE
  2
VPORT
  5
8
100
AcDbSymbolTable
 70
1
  0
VPORT
  5
30
100
AcDbSymbolTableRecord
100
AcDbViewportTableRecord
  2
*Active
 70
0
 10
0.0
 20
0.0
 11
1.0
 21
1.0
 12
286.3055555555554861
 22
148.5
 13
0.0
 23
0.0
 14
10.0
 24
10.0
 15
10.0
 25
10.0
 16
0.0
 26
0.0
 36
1.0
 17
0.0
 27
0.0
 37
0.0
 40
297.0
 41
1.92798353909465
 42
50.0
 43
0.0
 44
0.0
 50
0.0
 51
0.0
 71
0
 72
100
 73
1
 74
3
 75
1
 76
1
 77
0
 78
0
281
0
 65
1
110
0.0
120
0.0
130
0.0
111
1.0
121
0.0
131
0.0
112
0.0
122
1.0
132
0.0
 79
0
146
0.0
  0
ENDTAB
  0
TABLE
  2
LTYPE
  5
5
100
AcDbSymbolTable
 70
21
  0
LTYPE
  5
14
100
AcDbSymbolTableRecord
100
AcDbLinetypeTableRecord
  2
ByBlock
 70
0
  3

 72
65
 73
0
 40
0.0
  0
LTYPE
  5
15
100
AcDbSymbolTableRecord
100
AcDbLinetypeTableRecord
  2
ByLayer
 70
0
  3

 72
65
 73
0
 40
0.0
  0
LTYPE
  5
16
100
AcDbSymbolTableRecord
100
AcDbLinetypeTableRecord
  2
CONTINUOUS
 70
0
  3
Solid line
 72
65
 73
0
 40
0.0
  0
LTYPE
  5
31
100
AcDbSymbolTableRecord
100
AcDbLinetypeTableRecord
  2
DOT
 70
0
  3
Dot . . . . . . . . . . . . . . . . . . . . . .
 72
65
 73
2
 40
6.3499999999999996
 49
0.0
 74
0
 49
-6.3499999999999996
 74
0
  0
LTYPE
  5
32
100
AcDbSymbolTableRecord
100
AcDbLinetypeTableRecord
  2
DOT2
 70
0
  3
Dot (.5x) .....................................
 72
65
 73
2
 40
3.1749999999999998
 49
0.0
 74
0
 49
-3.1749999999999998
 74
0
  0
LTYPE
  5
33
100
AcDbSymbolTableRecord
100
AcDbLinetypeTableRecord
  2
DOTX2
 70
0
  3
Dot (2x) .  .  .  .  .  .  .  .  .  .  .  .  .
 72
65
 73
2
 40
12.6999999999999993
 49
0.0
 74
0
 49
-12.6999999999999993
 74
0
  0
LTYPE
  5
34
100
AcDbSymbolTableRecord
100
AcDbLinetypeTableRecord
  2
DASHED
 70
0
  3
Dashed __ __ __ __ __ __ __ __ __ __ __ __ __ _
 72
65
 73
2
 40
19.0500000000000007
 49
12.6999999999999993
 74
0
 49
-6.3499999999999996
 74
0
  0
LTYPE
  5
35
100
AcDbSymbolTableRecord
100
AcDbLinetypeTableRecord
  2
DASHED2
 70
0
  3
Dashed (.5x) _ _ _ _ _ _ _ _ _ _ _ _ _ _ _ _ _
 72
65
 73
2
 40
9.5250000000000004
 49
6.3499999999999996
 74
0
 49
-3.1749999999999998
 74
0
  0
LTYPE
  5
36
100
AcDbSymbolTableRecord
100
AcDbLinetypeTableRecord
  2
DASHEDX2
 70
0
  3
Dashed (2x) ____  ____  ____  ____  ____  ___
 72
65
 73
2
 40
38.1000000000000014
 49
25.3999999999999986
 74
0
 49
-12.6999999999999993
 74
0
  0
LTYPE
  5
37
100
AcDbSymbolTableRecord
100
AcDbLinetypeTableRecord
  2
DASHDOT
 70
0
  3
Dash dot __ . __ . __ . __ . __ . __ . __ . __
 72
65
 73
4
 40
25.3999999999999986
 49
12.6999999999999993
 74
0
 49
-6.3499999999999996
 74
0
 49
0.0
 74
0
 49
-6.3499999999999996
 74
0
  0
LTYPE
  5
38
100
AcDbSymbolTableRecord
100
AcDbLinetypeTableRecord
  2
DASHDOT2
 70
0
  3
Dash dot (.5x) _._._._._._._._._._._._._._._.
 72
65
 73
4
 40
12.6999999999999993
 49
6.3499999999999996
 74
0
 49
-3.1749999999999998
 74
0
 49
0.0
 74
0
 49
-3.1749999999999998
 74
0
  0
LTYPE
  5
39
100
AcDbSymbolTableRecord
100
AcDbLinetypeTableRecord
  2
DASHDOTX2
 70
0
  3
Dash dot (2x) ____  .  ____  .  ____  .  ___
 72
65
 73
4
 40
50.7999999999999972
 49
25.3999999999999986
 74
0
 49
-12.6999999999999993
 74
0
 49
0.0
 74
0
 49
-12.6999999999999993
 74
0
  0
LTYPE
  5
3A
100
AcDbSymbolTableRecord
100
AcDbLinetypeTableRecord
  2
DIVIDE
 70
0
  3
Divide ____ . . ____ . . ____ . . ____ . . ____
 72
65
 73
6
 40
31.75
 49
12.6999999999999993
 74
0
 49
-6.3499999999999996
 74
0
 49
0.0
 74
0
 49
-6.3499999999999996
 74
0
 49
0.0
 74
0
 49
-6.3499999999999996
 74
0
  0
LTYPE
  5
3B
100
AcDbSymbolTableRecord
100
AcDbLinetypeTableRecord
  2
DIVIDE2
 70
0
  3
Divide (.5x) __..__..__..__..__..__..__..__.._
 72
65
 73
6
 40
15.875
 49
6.3499999999999996
 74
0
 49
-3.1749999999999998
 74
0
 49
0.0
 74
0
 49
-3.1749999999999998
 74
0
 49
0.0
 74
0
 49
-3.1749999999999998
 74
0
  0
LTYPE
  5
3C
100
AcDbSymbolTableRecord
100
AcDbLinetypeTableRecord
  2
DIVIDEX2
 70
0
  3
Divide (2x) ________  .  .  ________  .  .  _
 72
65
 73
6
 40
63.5
 49
25.3999999999999986
 74
0
 49
-12.6999999999999993
 74
0
 49
0.0
 74
0
 49
-12.6999999999999993
 74
0
 49
0.0
 74
0
 49
-12.6999999999999993
 74
0
  0
LTYPE
  5
3D
100
AcDbSymbolTableRecord
100
AcDbLinetypeTableRecord
  2
CENTER
 70
0
  3
Center ____ _ ____ _ ____ _ ____ _ ____ _ ____
 72
65
 73
4
 40
50.7999999999999972
 49
31.75
 74
0
 49
-6.3499999999999996
 74
0
 49
6.3499999999999996
 74
0
 49
-6.3499999999999996
 74
0
  0
LTYPE
  5
3E
100
AcDbSymbolTableRecord
100
AcDbLinetypeTableRecord
  2
CENTER2
 70
0
  3
Center (.5x) ___ _ ___ _ ___ _ ___ _ ___ _ ___
 72
65
 73
4
 40
28.5749999999999993
 49
19.0500000000000007
 74
0
 49
-3.1749999999999998
 74
0
 49
3.1749999999999998
 74
0
 49
-3.1749999999999998
 74
0
  0
LTYPE
  5
3F
100
AcDbSymbolTableRecord
100
AcDbLinetypeTableRecord
  2
CENTERX2
 70
0
  3
Center (2x) ________  __  ________  __  _____
 72
65
 73
4
 40
101.5999999999999943
 49
63.5
 74
0
 49
-12.6999999999999993
 74
0
 49
12.6999999999999993
 74
0
 49
-12.6999999999999993
 74
0
  0
LTYPE
  5
40
100
AcDbSymbolTableRecord
100
AcDbLinetypeTableRecord
  2
BORDER
 70
0
  3
Border __ __ . __ __ . __ __ . __ __ . __ __ .
 72
65
 73
6
 40
44.4500000000000028
 49
12.6999999999999993
 74
0
 49
-6.3499999999999996
 74
0
 49
12.6999999999999993
 74
0
 49
-6.3499999999999996
 74
0
 49
0.0
 74
0
 49
-6.3499999999999996
 74
0
  0
LTYPE
  5
41
100
AcDbSymbolTableRecord
100
AcDbLinetypeTableRecord
  2
BORDER2
 70
0
  3
Border (.5x) __.__.__.__.__.__.__.__.__.__.__.
 72
65
 73
6
 40
22.2250000000000014
 49
6.3499999999999996
 74
0
 49
-3.1749999999999998
 74
0
 49
6.3499999999999996
 74
0
 49
-3.1749999999999998
 74
0
 49
0.0
 74
0
 49
-3.1749999999999998
 74
0
  0
LTYPE
  5
42
100
AcDbSymbolTableRecord
100
AcDbLinetypeTableRecord
  2
BORDERX2
 70
0
  3
Border (2x) ____  ____  .  ____  ____  .  ___
 72
65
 73
6
 40
88.9000000000000057
 49
25.3999999999999986
 74
0
 49
-12.6999999999999993
 74
0
 49
25.3999999999999986
 74
0
 49
-12.6999999999999993
 74
0
 49
0.0
 74
0
 49
-12.6999999999999993
 74
0
  0
ENDTAB
  0
TABLE
  2
LAYER
  5
2
100
AcDbSymbolTable
 70
1
  0
LAYER
  5
10
100
AcDbSymbolTableRecord
100
AcDbLayerTableRecord
  2
0
 70
0
 62
7
  6
CONTINUOUS
370
0
390
F
  0
ENDTAB
  0
TABLE
  2
STYLE
  5
3
100
AcDbSymbolTable
 70
1
  0
STYLE
  5
11
100
AcDbSymbolTableRecord
100
AcDbTextStyleTableRecord
  2
Standard
 70
0
 40
0.0
 41
0.75
 50
0.0
 71
0
 42
2.5
  3
txt
  4

  0
ENDTAB
  0
TABLE
  2
VIEW
  5
6
100
AcDbSymbolTable
 70
0
  0
ENDTAB
  0
TABLE
  2
UCS
  5
7
100
AcDbSymbolTable
 70
0
  0
ENDTAB
  0
TABLE
  2
APPID
  5
9
100
AcDbSymbolTable
 70
1
  0
APPID
  5
12
100
AcDbSymbolTableRecord
100
AcDbRegAppTableRecord
  2
ACAD
 70
0
  0
ENDTAB
  0
TABLE
  2
DIMSTYLE
  5
A
100
AcDbSymbolTable
 70
1
100
AcDbDimStyleTable
 71
0
  0
DIMSTYLE
105
27
100
AcDbSymbolTableRecord
100
AcDbDimStyleTableRecord
  2
Standard
 41
2.5
 42
0.625
 43
3.75
 44
1.25
 70
0
 73
0
 74
0
 77
1
 78
8
140
2.5
141
2.5
143
0.03937007874016
147
0.625
171
3
172
1
271
2
272
2
274
3
278
44
283
0
284
8
340
11
  0
ENDTAB
  0
TABLE
  2
BLOCK_RECORD
  5
1
100
AcDbSymbolTable
 70
1
  0
BLOCK_RECORD
  5
1F
100
AcDbSymbolTableRecord
100
AcDbBlockTableRecord
  2
*Model_Space
340
22
  0
BLOCK_RECORD
  5
1B
100
AcDbSymbolTableRecord
100
AcDbBlockTableRecord
  2
*Paper_Space
340
1E
  0
BLOCK_RECORD
  5
23
100
AcDbSymbolTableRecord
100
AcDbBlockTableRecord
  2
*Paper_Space0
340
26
  0
ENDTAB
  0
ENDSEC
  0
SECTION
  2
BLOCKS
  0
BLOCK
  5
20
100
AcDbEntity
  8
0
100
AcDbBlockBegin
  2
*Model_Space
 70
0
 10
0.0
 20
0.0
 30
0.0
  3
*Model_Space
  1

  0
ENDBLK
  5
21
100
AcDbEntity
  8
0
100
AcDbBlockEnd
  0
BLOCK
  5
1C
100
AcDbEntity
 67
1
  8
0
100
AcDbBlockBegin
  2
*Paper_Space
 70
0
 10
0.0
 20
0.0
 30
0.0
  3
*Paper_Space
  1

  0
ENDBLK
  5
1D
100
AcDbEntity
 67
1
  8
0
100
AcDbBlockEnd
  0
BLOCK
  5
24
100
AcDbEntity
  8
0
100
AcDbBlockBegin
  2
*Paper_Space0
 70
0
 10
0.0
 20
0.0
 30
0.0
  3
*Paper_Space0
  1

  0
ENDBLK
  5
25
100
AcDbEntity
  8
0
100
AcDbBlockEnd
  0
ENDSEC
  0
SECTION
  2
ENTITIES
  0
LINE
  5
43
100
AcDbEntity
100
AcDbLine
  8
0
 62
7
370
9
  6
ByLayer
 10
100.0
 20
100.0
 30
0.0
 11
100.0
 21
100.0
 31
0.0
  0
LINE
  5
44
100
AcDbEntity
100
AcDbLine
  8
0
 62
7
370
9
  6
ByLayer
 10
100.0
 20
100.0
 30
0.0
 11
100.0
 21
200.0
 31
0.0
  0
LINE
  5
45
100
AcDbEntity
100
AcDbLine
  8
0
 62
7
370
9
  6
ByLayer
 10
-0.0819200000000013
 20
129.9955200000001128
 30
0.0
 11
-0.0819199999999988
 21
169.9955200000001128
 31
0.0
  0
LINE
  5
46
100
AcDbEntity
100
AcDbLine
  8
0
 62
7
370
9
  6
ByLayer
 10
-5.0
 20
130.0889600000000996
 30
0.0
 11
5.0
 21
130.0889600000000996
 31
0.0
  0
LINE
  5
47
100
AcDbEntity
100
AcDbLine
  8
0
 62
7
370
9
  6
ByLayer
 10
-5.0
 20
120.0128000000000839
 30
0.0
 11
5.0
 21
120.0128000000000839
 31
0.0
  0
LINE
  5
48
100
AcDbEntity
100
AcDbLine
  8
0
 62
7
370
9
  6
ByLayer
 10
-5.0
 20
169.902080000000467
 30
0.0
 11
5.0
 21
169.902080000000467
 31
0.0
  0
LINE
  5
49
100
AcDbEntity
100
AcDbLine
  8
0
 62
7
370
9
  6
ByLayer
 10
-5.0
 20
179.8144000000004894
 30
0.0
 11
5.0
 21
179.8144000000004894
 31
0.0
  0
LINE
  5
4A
100
AcDbEntity
100
AcDbLine
  8
0
 62
7
370
9
  6
ByLayer
 10
0.0
 20
119.9308800000003288
 30
0.0
 11
0.0335544320000003
 21
100.0257617920008926
 31
0.0
  0
LINE
  5
4B
100
AcDbEntity
100
AcDbLine
  8
0
 62
7
370
9
  6
ByLayer
 10
0.0
 20
179.9782400000005111
 30
0.0
 11
-0.0429496729600002
 21
199.973677301761029
 31
0.0
  0
LINE
  5
4C
100
AcDbEntity
100
AcDbLine
  8
0
 62
7
370
9
  6
ByLayer
 10
100.0000000000012932
 20
160.320000000002068
 30
0.0
 11
100.0000000000012932
 21
160.320000000002068
 31
0.0
  0
MTEXT
  5
4D
100
AcDbEntity
100
AcDbMText
  8
0
 62
7
370
9
  6
ByLayer
 10
107.4218750000029132
 20
161.6210937500043769
 30
0.0
 40
10.0
 41
100.0
 71
5
 72
2
  1
\U+042d
  7
cyrillic_ii
 50
0.0
 73
0
 44
1.0
  0
LINE
  5
4E
100
AcDbEntity
100
AcDbLine
  8
0
 62
7
370
9
  6
ByLayer
 10
0.0
 20
174.9906972860126473
 30
0.0
 11
-50.0
 21
174.9906972860126473
 31
0.0
  0
LINE
  5
4F
100
AcDbEntity
100
AcDbLine
  8
0
 62
7
370
9
  6
ByLayer
 10
0.0
 20
124.9425369519834987
 30
0.0
 11
-50.0
 21
124.9425369519834987
 31
0.0
  0
LINE
  5
50
100
AcDbEntity
100
AcDbLine
  8
0
 62
7
370
9
  6
ByLayer
 10
-57.0918644715733521
 20
117.9261964887612208
 30
0.0
 11
-42.9497288478424011
 21
132.0683321124921576
 31
0.0
  0
LINE
  5
51
100
AcDbEntity
100
AcDbLine
  8
0
 62
7
370
9
  6
ByLayer
 10
-43.0591835451284197
 20
167.9469931484690903
 30
0.0
 11
-57.2013191688593707
 21
182.0891287722000413
 31
0.0
  0
LINE
  5
52
100
AcDbEntity
100
AcDbLine
  8
0
 62
7
370
9
  6
ByLayer
 10
-50.0164184718166567
 20
175.0224391482267663
 30
0.0
 11
-50.0164184718166567
 21
195.0224391482267663
 31
0.0
  0
LINE
  5
53
100
AcDbEntity
100
AcDbLine
  8
0
 62
7
370
9
  6
ByLayer
 10
-50.0164184718166567
 20
124.9009441670155525
 30
0.0
 11
-50.0164184718166567
 21
104.9009441670155525
 31
0.0
  0
LINE
  5
54
100
AcDbEntity
100
AcDbLine
  8
0
 62
7
370
9
  6
ByLayer
 10
-42.9453506599513375
 20
188.0560101338568302
 30
0.0
 11
-57.0874862836822885
 21
202.1981457575877812
 31
0.0
  0
LINE
  5
55
100
AcDbEntity
100
AcDbLine
  8
0
 62
7
370
9
  6
ByLayer
 10
-57.0874862836822885
 20
97.7602630607869969
 30
0.0
 11
-42.9453506599513375
 21
111.9023986845179479
 31
0.0
  0
LINE
  5
56
100
AcDbEntity
100
AcDbLine
  8
0
 62
7
370
9
  6
ByLayer
 10
-50.016418471816948
 20
104.8523461745316752
 30
0.0
 11
-80.016418471816948
 21
104.8523461745316752
 31
0.0
  0
LINE
  5
57
100
AcDbEntity
100
AcDbLine
  8
0
 62
7
370
9
  6
ByLayer
 10
-50.016418471816948
 20
195.0500218388334872
 30
0.0
 11
-80.016418471816948
 21
195.0500218388334872
 31
0.0
  0
LINE
  5
58
100
AcDbEntity
100
AcDbLine
  8
0
 62
7
370
9
  6
ByLayer
 10
0.0
 20
124.9972643006283164
 30
0.0
 11
36.2523114814660019
 21
141.9019947702562945
 31
0.0
  0
LINE
  5
59
100
AcDbEntity
100
AcDbLine
  8
0
 62
7
370
9
  6
ByLayer
 10
0.0
 20
174.99617002087993
 30
0.0
 11
36.2523114814660019
 21
158.0914395512519377
 31
0.0
  0
ARC
  5
5A
100
AcDbEntity
  8
0
 62
7
370
9
  6
ByLayer
100
AcDbCircle
 10
59.8795932845969219
 20
150.0908671017662641
 30
0.0
 40
24.9082127567757858
100
AcDbArc
 50
142.9928488334310543
 51
216.9284345383541677
  0
ARC
  5
5B
100
AcDbEntity
  8
0
 62
7
370
9
  6
ByLayer
100
AcDbCircle
 10
20.1264816587093769
 20
150.1695069619827336
 30
0.0
 40
24.9451056747469551
100
AcDbArc
 50
322.7799224083377112
 51
36.7155081132607819
  0
LINE
  5
5C
100
AcDbEntity
100
AcDbLine
  8
0
 62
7
370
9
  6
ByLayer
 10
99.8774112734890451
 20
149.987139874742951
 30
0.0
 11
-0.1225887265109549
 21
149.987139874742951
 31
0.0
  0
LINE
  5
5D
100
AcDbEntity
100
AcDbLine
  8
0
 62
7
370
9
  6
ByLayer
 10
100.7098121085621614
 20
149.9791231732816357
 30
0.0
 11
44.6084807883102457
 21
154.8967850488561737
 31
0.0
  0
LINE
  5
5E
100
AcDbEntity
100
AcDbLine
  8
0
 62
7
370
9
  6
ByLayer
 10
100.2087682672260343
 20
149.9791231732816357
 30
0.0
 11
44.4963991782895434
 21
145.1232686550360427
 31
0.0
  0
LINE
  5
5F
100
AcDbEntity
100
AcDbLine
  8
0
 62
7
370
9
  6
ByLayer
 10
36.2295048016713608
 20
158.0525828810073676
 30
0.0
 11
44.7122438413376102
 21
154.8236693110698923
 31
0.0
  0
LINE
  5
60
100
AcDbEntity
100
AcDbLine
  8
0
 62
7
370
9
  6
ByLayer
 10
36.2842321503143665
 20
142.0174697286059882
 30
0.0
 11
44.49333444676558
 21
145.0822012526144533
 31
0.0
  0
LINE
  5
61
100
AcDbEntity
100
AcDbLine
  8
0
 62
7
370
9
  6
ByLayer
 10
-57.0532609603360683
 20
202.0807348643078569
 30
0.0
 11
-52.0532609603360683
 21
202.0807348643078569
 31
0.0
  0
LINE
  5
62
100
AcDbEntity
100
AcDbLine
  8
0
 62
7
370
9
  6
ByLayer
 10
-54.7957578288119791
 20
200.0968684759988037
 30
0.0
 11
-49.7957578288119791
 21
200.0968684759988037
 31
0.0
  0
LINE
  5
63
100
AcDbEntity
100
AcDbLine
  8
0
 62
7
370
9
  6
ByLayer
 10
-52.8744995273505793
 20
197.9641436993809407
 30
0.0
 11
-47.8744995273505793
 21
197.9641436993809407
 31
0.0
  0
LINE
  5
64
100
AcDbEntity
100
AcDbLine
  8
0
 62
7
370
9
  6
ByLayer
 10
-50.9130713519851668
 20
196.0027155240155423
 30
0.0
 11
-45.9130713519851668
 21
196.0027155240155423
 31
0.0
  0
LINE
  5
65
100
AcDbEntity
100
AcDbLine
  8
0
 62
7
370
9
  6
ByLayer
 10
-48.8956023716093071
 20
193.9572261411344414
 30
0.0
 11
-43.8956023716093071
 21
193.9572261411344414
 31
0.0
  0
LINE
  5
66
100
AcDbEntity
100
AcDbLine
  8
0
 62
7
370
9
  6
ByLayer
 10
-46.8781333912334475
 20
191.995797965769043
 30
0.0
 11
-41.8781333912334475
 21
191.995797965769043
 31
0.0
  0
LINE
  5
67
100
AcDbEntity
100
AcDbLine
  8
0
 62
7
370
9
  6
ByLayer
 10
-44.832644008352375
 20
190.0063493878984104
 30
0.0
 11
-39.832644008352375
 21
190.0063493878984104
 31
0.0
  0
LINE
  5
68
100
AcDbEntity
100
AcDbLine
  8
0
 62
7
370
9
  6
ByLayer
 10
-42.9552770405026152
 20
188.0169008100277779
 30
0.0
 11
-37.9552770405026152
 21
188.0169008100277779
 31
0.0
  0
LINE
  5
69
100
AcDbEntity
100
AcDbLine
  8
0
 62
7
370
9
  6
ByLayer
 10
-57.2288700766619058
 20
182.0653673179193106
 30
0.0
 11
-62.2288700766619058
 21
182.0653673179193106
 31
0.0
  0
LINE
  5
6A
100
AcDbEntity
100
AcDbLine
  8
0
 62
7
370
9
  6
ByLayer
 10
-55.1889847742818702
 20
180.0030656935350919
 30
0.0
 11
-60.1889847742818702
 21
180.0030656935350919
 31
0.0
  0
LINE
  5
6B
100
AcDbEntity
100
AcDbLine
  8
0
 62
7
370
9
  6
ByLayer
 10
-53.2163484379143625
 20
178.0304293571675771
 30
0.0
 11
-58.2163484379143625
 21
178.0304293571675771
 31
0.0
  0
LINE
  5
6C
100
AcDbEntity
100
AcDbLine
  8
0
 62
7
370
9
  6
ByLayer
 10
-51.1764631355343269
 20
176.0353766987959148
 30
0.0
 11
-56.1764631355343269
 21
176.0353766987959148
 31
0.0
  0
LINE
  5
6D
100
AcDbEntity
100
AcDbLine
  8
0
 62
7
370
9
  6
ByLayer
 10
-49.0917451891459322
 20
173.9730750744116961
 30
0.0
 11
-54.0917451891459322
 21
173.9730750744116961
 31
0.0
  0
LINE
  5
6E
100
AcDbEntity
100
AcDbLine
  8
0
 62
7
370
9
  6
ByLayer
 10
-47.0966925307742486
 20
172.0228550600483572
 30
0.0
 11
-52.0966925307742486
 21
172.0228550600483572
 31
0.0
  0
LINE
  5
6F
100
AcDbEntity
100
AcDbLine
  8
0
 62
7
370
9
  6
ByLayer
 10
-45.1688888384150928
 20
170.0278024016766665
 30
0.0
 11
-50.1688888384150928
 21
170.0278024016766665
 31
0.0
  0
LINE
  5
70
100
AcDbEntity
100
AcDbLine
  8
0
 62
7
370
9
  6
ByLayer
 10
-43.0617545700225293
 20
167.9655007772924478
 30
0.0
 11
-48.0617545700225293
 21
167.9655007772924478
 31
0.0
  0
LINE
  5
71
100
AcDbEntity
100
AcDbLine
  8
0
 62
7
370
9
  6
ByLayer
 10
-42.9720892820059035
 20
132.0545529266024118
 30
0.0
 11
-47.9720892820059035
 21
132.0545529266024118
 31
0.0
  0
LINE
  5
72
100
AcDbEntity
100
AcDbLine
  8
0
 62
7
370
9
  6
ByLayer
 10
-45.0568072283942982
 20
129.9698349802140172
 30
0.0
 11
-50.0568072283942982
 21
129.9698349802140172
 31
0.0
  0
LINE
  5
73
100
AcDbEntity
100
AcDbLine
  8
0
 62
7
370
9
  6
ByLayer
 10
-47.0966925307743409
 20
127.9971986438464882
 30
0.0
 11
-52.0966925307743409
 21
127.9971986438464882
 31
0.0
  0
LINE
  5
74
100
AcDbEntity
100
AcDbLine
  8
0
 62
7
370
9
  6
ByLayer
 10
-49.0244962231334966
 20
125.9797296634706356
 30
0.0
 11
-54.0244962231334966
 21
125.9797296634706356
 31
0.0
  0
LINE
  5
75
100
AcDbEntity
100
AcDbLine
  8
0
 62
7
370
9
  6
ByLayer
 10
-51.0643815255135394
 20
123.9846770050989448
 30
0.0
 11
-56.0643815255135394
 21
123.9846770050989448
 31
0.0
  0
LINE
  5
76
100
AcDbEntity
100
AcDbLine
  8
0
 62
7
370
9
  6
ByLayer
 10
-52.9921852178727022
 20
121.9896243467272541
 30
0.0
 11
-57.9921852178727022
 21
121.9896243467272541
 31
0.0
  0
LINE
  5
77
100
AcDbEntity
100
AcDbLine
  8
0
 62
7
370
9
  6
ByLayer
 10
-55.0096541982485618
 20
119.9945716883555633
 30
0.0
 11
-60.0096541982485618
 21
119.9945716883555633
 31
0.0
  0
LINE
  5
78
100
AcDbEntity
100
AcDbLine
  8
0
 62
7
370
9
  6
ByLayer
 10
-57.1167884666411325
 20
117.9546863859755206
 30
0.0
 11
-62.1167884666411325
 21
117.9546863859755206
 31
0.0
  0
LINE
  5
79
100
AcDbEntity
100
AcDbLine
  8
0
 62
7
370
9
  6
ByLayer
 10
-42.927256637997715
 20
111.9246957668525226
 30
0.0
 11
-37.927256637997715
 21
111.9246957668525226
 31
0.0
  0
LINE
  5
7A
100
AcDbEntity
100
AcDbLine
  8
0
 62
7
370
9
  6
ByLayer
 10
-44.8326440083527373
 20
110.0081002354955331
 30
0.0
 11
-39.8326440083527373
 21
110.0081002354955331
 31
0.0
  0
LINE
  5
7B
100
AcDbEntity
100
AcDbLine
  8
0
 62
7
370
9
  6
ByLayer
 10
-46.7940721837181712
 20
108.0186516576248863
 30
0.0
 11
-41.7940721837181712
 21
108.0186516576248863
 31
0.0
  0
LINE
  5
7C
100
AcDbEntity
100
AcDbLine
  8
0
 62
7
370
9
  6
ByLayer
 10
-48.8115411640940451
 20
106.0292030797542253
 30
0.0
 11
-43.8115411640940451
 21
106.0292030797542253
 31
0.0
  0
LINE
  5
7D
100
AcDbEntity
100
AcDbLine
  8
0
 62
7
370
9
  6
ByLayer
 10
-50.744948936954259
 20
104.0397545018835785
 30
0.0
 11
-45.744948936954259
 21
104.0397545018835785
 31
0.0
  0
LINE
  5
7E
100
AcDbEntity
100
AcDbLine
  8
0
 62
7
370
9
  6
ByLayer
 10
-52.7904383198353528
 20
102.0503059240129176
 30
0.0
 11
-47.7904383198353528
 21
102.0503059240129176
 31
0.0
  0
LINE
  5
7F
100
AcDbEntity
100
AcDbLine
  8
0
 62
7
370
9
  6
ByLayer
 10
-54.8359277027164467
 20
99.9767961386266109
 30
0.0
 11
-49.8359277027164467
 21
99.9767961386266109
 31
0.0
  0
LINE
  5
80
100
AcDbEntity
100
AcDbLine
  8
0
 62
7
370
9
  6
ByLayer
 10
-56.7132946705662135
 20
98.0433883657663898
 30
0.0
 11
-51.7132946705662135
 21
98.0433883657663898
 31
0.0
  0
MTEXT
  5
81
100
AcDbEntity
100
AcDbMText
  8
0
 62
7
370
9
  6
ByLayer
 10
-57.6200417536561247
 20
135.0730688935344688
 30
0.0
 40
10.0
 41
100.0
 71
5
 72
0
  1
m
  7
symbol
 50
0.0
 73
1
 44
1.0
  0
MTEXT
  5
82
100
AcDbEntity
100
AcDbMText
  8
0
 62
7
370
9
  6
ByLayer
 10
-60.1252609603368242
 20
170.3549060542876816
 30
0.0
 40
10.0
 41
100.0
 71
5
 72
0
  1
m
  7
symbol
 50
0.0
 73
1
 44
1.0
  0
MTEXT
  5
83
100
AcDbEntity
100
AcDbMText
  8
0
 62
7
370
9
  6
ByLayer
 10
-35.2818371607532058
 20
107.3068893528233616
 30
0.0
 40
10.0
 41
100.0
 71
5
 72
0
  1
m
  7
symbol
 50
0.0
 73
1
 44
1.0
  0
MTEXT
  5
84
100
AcDbEntity
100
AcDbMText
  8
0
 62
7
370
9
  6
ByLayer
 10
-43.6325678496888756
 20
206.8893528183812407
 30
0.0
 40
10.0
 41
100.0
 71
5
 72
0
  1
m
  7
symbol
 50
0.0
 73
1
 44
1.0
  0
MTEXT
  5
85
100
AcDbEntity
100
AcDbMText
  8
0
 62
7
370
9
  6
ByLayer
 10
-39.0396659707742586
 20
200.4175365344561044
 30
0.0
 40
5.0
 41
100.0
 71
5
 72
0
  1
1
  7
normal
 50
0.0
 73
1
 44
1.0
  0
MTEXT
  5
86
100
AcDbEntity
100
AcDbMText
  8
0
 62
7
370
9
  6
ByLayer
 10
-55.5323590814222072
 20
163.8830897703625453
 30
0.0
 40
5.0
 41
100.0
 71
5
 72
0
  1
3
  7
normal
 50
0.0
 73
1
 44
1.0
  0
MTEXT
  5
87
100
AcDbEntity
100
AcDbMText
  8
0
 62
7
370
9
  6
ByLayer
 10
-53.2359081419648987
 20
129.8538622129496787
 30
0.0
 40
5.0
 41
100.0
 71
5
 72
0
  1
4
  7
normal
 50
0.0
 73
1
 44
1.0
  0
MTEXT
  5
88
100
AcDbEntity
100
AcDbMText
  8
0
 62
7
370
9
  6
ByLayer
 10
-31.1064718162853708
 20
102.5052192066853536
 30
0.0
 40
5.0
 41
100.0
 71
5
 72
0
  1
2
  7
normal
 50
0.0
 73
1
 44
1.0
  0
LEADER
  5
89
  8
0
 62
7
370
9
  6
ByLayer
100
AcDbEntity
100
AcDbLeader
  3
Standard
 71
1
 72
0
 73
3
 74
0
 75
0
 40
1.0
 41
10.0
 76
2
 10
59.9681446255728119
 20
153.5500124228482832
 10
58.4904606790574988
 20
153.6791304375923346
  0
LEADER
  5
8A
  8
0
 62
7
370
9
  6
ByLayer
100
AcDbEntity
100
AcDbLeader
  3
Standard
 71
1
 72
0
 73
3
 74
0
 75
0
 40
1.0
 41
10.0
 76
2
 10
60.0025760961715235
 20
146.4829530825243182
 10
57.5464645268179069
 20
146.2763642589338247
  0
ENDSEC
  0
SECTION
  2
OBJECTS
  0
DICTIONARY
  5
C
100
AcDbDictionary
280
0
281
1
  3
ACAD_GROUP
350
D
  3
ACAD_LAYOUT
350
1A
  3
ACAD_MLINESTYLE
350
17
  3
ACAD_PLOTSETTINGS
350
19
  3
ACAD_PLOTSTYLENAME
350
E
  3
AcDbVariableDictionary
350
8B
  0
DICTIONARY
  5
D
100
AcDbDictionary
280
0
281
1
  0
ACDBDICTIONARYWDFLT
  5
E
100
AcDbDictionary
281
1
  3
Normal
350
F
100
AcDbDictionaryWithDefault
340
F
  0
ACDBPLACEHOLDER
  5
F
  0
DICTIONARY
  5
17
100
AcDbDictionary
280
0
281
1
  3
Standard
350
18
  0
MLINESTYLE
  5
18
100
AcDbMlineStyle
  2
STANDARD
 70
0
  3

 62
256
 51
90.0
 52
90.0
 71
2
 49
0.5
 62
256
  6
BYLAYER
 49
-0.5
 62
256
  6
BYLAYER
  0
DICTIONARY
  5
19
100
AcDbDictionary
280
0
281
1
  0
DICTIONARY
  5
1A
100
AcDbDictionary
281
1
  3
Layout1
350
1E
  3
Layout2
350
26
  3
Model
350
22
  0
LAYOUT
  5
1E
100
AcDbPlotSettings
  1

  2
C:\Program Files\AutoCAD 2002\plotters\DWF ePlot (optimized for plotting).pc3
  4

  6

 40
0.0
 41
0.0
 42
0.0
 43
0.0
 44
0.0
 45
0.0
 46
0.0
 47
0.0
 48
0.0
 49
0.0
140
0.0
141
0.0
142
1.0
143
1.0
 70
688
 72
0
 73
0
 74
5
  7

 75
16
147
1.0
148
0.0
149
0.0
100
AcDbLayout
  1
Layout1
 70
1
 71
1
 10
0.0
 20
0.0
 11
420.0
 21
297.0
 12
0.0
 22
0.0
 32
0.0
 14
100000000000000000000.0
 24
100000000000000000000.0
 34
100000000000000000000.0
 15
-100000000000000000000.0
 25
-100000000000000000000.0
 35
-100000000000000000000.0
146
0.0
 13
0.0
 23
0.0
 33
0.0
 16
1.0
 26
0.0
 36
0.0
 17
0.0
 27
1.0
 37
0.0
 76
0
330
1B
  0
LAYOUT
  5
22
100
AcDbPlotSettings
  1

  2
C:\Program Files\AutoCAD 2002\plotters\DWF ePlot (optimized for plotting).pc3
  4

  6

 40
0.0
 41
0.0
 42
0.0
 43
0.0
 44
0.0
 45
0.0
 46
0.0
 47
0.0
 48
0.0
 49
0.0
140
0.0
141
0.0
142
1.0
143
1.0
 70
1712
 72
0
 73
0
 74
0
  7

 75
0
147
1.0
148
0.0
149
0.0
100
AcDbLayout
  1
Model
 70
1
 71
0
 10
0.0
 20
0.0
 11
12.0
 21
9.0
 12
0.0
 22
0.0
 32
0.0
 14
0.0
 24
0.0
 34
0.0
 15
0.0
 25
0.0
 35
0.0
146
0.0
 13
0.0
 23
0.0
 33
0.0
 16
1.0
 26
0.0
 36
0.0
 17
0.0
 27
1.0
 37
0.0
 76
0
330
1F
  0
LAYOUT
  5
26
100
AcDbPlotSettings
  1

  2
C:\Program Files\AutoCAD 2002\plotters\DWF ePlot (optimized for plotting).pc3
  4

  6

 40
0.0
 41
0.0
 42
0.0
 43
0.0
 44
0.0
 45
0.0
 46
0.0
 47
0.0
 48
0.0
 49
0.0
140
0.0
141
0.0
142
1.0
143
1.0
 70
688
 72
0
 73
0
 74
5
  7

 75
16
147
1.0
148
0.0
149
0.0
100
AcDbLayout
  1
Layout2
 70
1
 71
2
 10
0.0
 20
0.0
 11
12.0
 21
9.0
 12
0.0
 22
0.0
 32
0.0
 14
0.0
 24
0.0
 34
0.0
 15
0.0
 25
0.0
 35
0.0
146
0.0
 13
0.0
 23
0.0
 33
0.0
 16
1.0
 26
0.0
 36
0.0
 17
0.0
 27
1.0
 37
0.0
 76
0
330
23
  0
DICTIONARY
  5
8B
100
AcDbDictionary
281
1
  3
DIMASSOC
350
8D
  3
HIDETEXT
350
8C
  0
DICTIONARYVAR
  5
8C
100
DictionaryVariables
280
0
  1
2
  0
DICTIONARYVAR
  5
8D
100
DictionaryVariables
280
0
  1
1
  0
ENDSEC
  0
EOF
