999
dxflib 2.0.4.8
  0
SECTION
  2
HEADER
  9
$ACADVER
  1
AC1015
  9
$HANDSEED
  5
FFFF
  9
$DIMASZ
 40
2.5
  9
$DIMGAP
 40
0.625
  9
$INSUNITS
 70
4
  9
$DIMEXO
 40
0.625
  9
$DIMTXT
 40
2.5
  9
$DIMSTYLE
  2
Standard
  9
$PLIMMIN
 10
0.0
 20
0.0
  9
$PLIMMAX
 10
210.0
 20
297.0
  9
$DIMEXE
 40
1.25
  0
ENDSEC
  0
SECTION
  2
TABLES
  0
TABLE
  2
VPORT
  5
8
100
AcDbSymbolTable
 70
1
  0
VPORT
  5
30
100
AcDbSymbolTableRecord
100
AcDbViewportTableRecord
  2
*Active
 70
0
 10
0.0
 20
0.0
 11
1.0
 21
1.0
 12
286.3055555555554861
 22
148.5
 13
0.0
 23
0.0
 14
10.0
 24
10.0
 15
10.0
 25
10.0
 16
0.0
 26
0.0
 36
1.0
 17
0.0
 27
0.0
 37
0.0
 40
297.0
 41
1.92798353909465
 42
50.0
 43
0.0
 44
0.0
 50
0.0
 51
0.0
 71
0
 72
100
 73
1
 74
3
 75
1
 76
1
 77
0
 78
0
281
0
 65
1
110
0.0
120
0.0
130
0.0
111
1.0
121
0.0
131
0.0
112
0.0
122
1.0
132
0.0
 79
0
146
0.0
  0
ENDTAB
  0
TABLE
  2
LTYPE
  5
5
100
AcDbSymbolTable
 70
21
  0
LTYPE
  5
14
100
AcDbSymbolTableRecord
100
AcDbLinetypeTableRecord
  2
ByBlock
 70
0
  3

 72
65
 73
0
 40
0.0
  0
LTYPE
  5
15
100
AcDbSymbolTableRecord
100
AcDbLinetypeTableRecord
  2
ByLayer
 70
0
  3

 72
65
 73
0
 40
0.0
  0
LTYPE
  5
16
100
AcDbSymbolTableRecord
100
AcDbLinetypeTableRecord
  2
CONTINUOUS
 70
0
  3
Solid line
 72
65
 73
0
 40
0.0
  0
LTYPE
  5
31
100
AcDbSymbolTableRecord
100
AcDbLinetypeTableRecord
  2
DOT
 70
0
  3
Dot . . . . . . . . . . . . . . . . . . . . . .
 72
65
 73
2
 40
6.3499999999999996
 49
0.0
 74
0
 49
-6.3499999999999996
 74
0
  0
LTYPE
  5
32
100
AcDbSymbolTableRecord
100
AcDbLinetypeTableRecord
  2
DOT2
 70
0
  3
Dot (.5x) .....................................
 72
65
 73
2
 40
3.1749999999999998
 49
0.0
 74
0
 49
-3.1749999999999998
 74
0
  0
LTYPE
  5
33
100
AcDbSymbolTableRecord
100
AcDbLinetypeTableRecord
  2
DOTX2
 70
0
  3
Dot (2x) .  .  .  .  .  .  .  .  .  .  .  .  .
 72
65
 73
2
 40
12.6999999999999993
 49
0.0
 74
0
 49
-12.6999999999999993
 74
0
  0
LTYPE
  5
34
100
AcDbSymbolTableRecord
100
AcDbLinetypeTableRecord
  2
DASHED
 70
0
  3
Dashed __ __ __ __ __ __ __ __ __ __ __ __ __ _
 72
65
 73
2
 40
19.0500000000000007
 49
12.6999999999999993
 74
0
 49
-6.3499999999999996
 74
0
  0
LTYPE
  5
35
100
AcDbSymbolTableRecord
100
AcDbLinetypeTableRecord
  2
DASHED2
 70
0
  3
Dashed (.5x) _ _ _ _ _ _ _ _ _ _ _ _ _ _ _ _ _
 72
65
 73
2
 40
9.5250000000000004
 49
6.3499999999999996
 74
0
 49
-3.1749999999999998
 74
0
  0
LTYPE
  5
36
100
AcDbSymbolTableRecord
100
AcDbLinetypeTableRecord
  2
DASHEDX2
 70
0
  3
Dashed (2x) ____  ____  ____  ____  ____  ___
 72
65
 73
2
 40
38.1000000000000014
 49
25.3999999999999986
 74
0
 49
-12.6999999999999993
 74
0
  0
LTYPE
  5
37
100
AcDbSymbolTableRecord
100
AcDbLinetypeTableRecord
  2
DASHDOT
 70
0
  3
Dash dot __ . __ . __ . __ . __ . __ . __ . __
 72
65
 73
4
 40
25.3999999999999986
 49
12.6999999999999993
 74
0
 49
-6.3499999999999996
 74
0
 49
0.0
 74
0
 49
-6.3499999999999996
 74
0
  0
LTYPE
  5
38
100
AcDbSymbolTableRecord
100
AcDbLinetypeTableRecord
  2
DASHDOT2
 70
0
  3
Dash dot (.5x) _._._._._._._._._._._._._._._.
 72
65
 73
4
 40
12.6999999999999993
 49
6.3499999999999996
 74
0
 49
-3.1749999999999998
 74
0
 49
0.0
 74
0
 49
-3.1749999999999998
 74
0
  0
LTYPE
  5
39
100
AcDbSymbolTableRecord
100
AcDbLinetypeTableRecord
  2
DASHDOTX2
 70
0
  3
Dash dot (2x) ____  .  ____  .  ____  .  ___
 72
65
 73
4
 40
50.7999999999999972
 49
25.3999999999999986
 74
0
 49
-12.6999999999999993
 74
0
 49
0.0
 74
0
 49
-12.6999999999999993
 74
0
  0
LTYPE
  5
3A
100
AcDbSymbolTableRecord
100
AcDbLinetypeTableRecord
  2
DIVIDE
 70
0
  3
Divide ____ . . ____ . . ____ . . ____ . . ____
 72
65
 73
6
 40
31.75
 49
12.6999999999999993
 74
0
 49
-6.3499999999999996
 74
0
 49
0.0
 74
0
 49
-6.3499999999999996
 74
0
 49
0.0
 74
0
 49
-6.3499999999999996
 74
0
  0
LTYPE
  5
3B
100
AcDbSymbolTableRecord
100
AcDbLinetypeTableRecord
  2
DIVIDE2
 70
0
  3
Divide (.5x) __..__..__..__..__..__..__..__.._
 72
65
 73
6
 40
15.875
 49
6.3499999999999996
 74
0
 49
-3.1749999999999998
 74
0
 49
0.0
 74
0
 49
-3.1749999999999998
 74
0
 49
0.0
 74
0
 49
-3.1749999999999998
 74
0
  0
LTYPE
  5
3C
100
AcDbSymbolTableRecord
100
AcDbLinetypeTableRecord
  2
DIVIDEX2
 70
0
  3
Divide (2x) ________  .  .  ________  .  .  _
 72
65
 73
6
 40
63.5
 49
25.3999999999999986
 74
0
 49
-12.6999999999999993
 74
0
 49
0.0
 74
0
 49
-12.6999999999999993
 74
0
 49
0.0
 74
0
 49
-12.6999999999999993
 74
0
  0
LTYPE
  5
3D
100
AcDbSymbolTableRecord
100
AcDbLinetypeTableRecord
  2
CENTER
 70
0
  3
Center ____ _ ____ _ ____ _ ____ _ ____ _ ____
 72
65
 73
4
 40
50.7999999999999972
 49
31.75
 74
0
 49
-6.3499999999999996
 74
0
 49
6.3499999999999996
 74
0
 49
-6.3499999999999996
 74
0
  0
LTYPE
  5
3E
100
AcDbSymbolTableRecord
100
AcDbLinetypeTableRecord
  2
CENTER2
 70
0
  3
Center (.5x) ___ _ ___ _ ___ _ ___ _ ___ _ ___
 72
65
 73
4
 40
28.5749999999999993
 49
19.0500000000000007
 74
0
 49
-3.1749999999999998
 74
0
 49
3.1749999999999998
 74
0
 49
-3.1749999999999998
 74
0
  0
LTYPE
  5
3F
100
AcDbSymbolTableRecord
100
AcDbLinetypeTableRecord
  2
CENTERX2
 70
0
  3
Center (2x) ________  __  ________  __  _____
 72
65
 73
4
 40
101.5999999999999943
 49
63.5
 74
0
 49
-12.6999999999999993
 74
0
 49
12.6999999999999993
 74
0
 49
-12.6999999999999993
 74
0
  0
LTYPE
  5
40
100
AcDbSymbolTableRecord
100
AcDbLinetypeTableRecord
  2
BORDER
 70
0
  3
Border __ __ . __ __ . __ __ . __ __ . __ __ .
 72
65
 73
6
 40
44.4500000000000028
 49
12.6999999999999993
 74
0
 49
-6.3499999999999996
 74
0
 49
12.6999999999999993
 74
0
 49
-6.3499999999999996
 74
0
 49
0.0
 74
0
 49
-6.3499999999999996
 74
0
  0
LTYPE
  5
41
100
AcDbSymbolTableRecord
100
AcDbLinetypeTableRecord
  2
BORDER2
 70
0
  3
Border (.5x) __.__.__.__.__.__.__.__.__.__.__.
 72
65
 73
6
 40
22.2250000000000014
 49
6.3499999999999996
 74
0
 49
-3.1749999999999998
 74
0
 49
6.3499999999999996
 74
0
 49
-3.1749999999999998
 74
0
 49
0.0
 74
0
 49
-3.1749999999999998
 74
0
  0
LTYPE
  5
42
100
AcDbSymbolTableRecord
100
AcDbLinetypeTableRecord
  2
BORDERX2
 70
0
  3
Border (2x) ____  ____  .  ____  ____  .  ___
 72
65
 73
6
 40
88.9000000000000057
 49
25.3999999999999986
 74
0
 49
-12.6999999999999993
 74
0
 49
25.3999999999999986
 74
0
 49
-12.6999999999999993
 74
0
 49
0.0
 74
0
 49
-12.6999999999999993
 74
0
  0
ENDTAB
  0
TABLE
  2
LAYER
  5
2
100
AcDbSymbolTable
 70
1
  0
LAYER
  5
10
100
AcDbSymbolTableRecord
100
AcDbLayerTableRecord
  2
0
 70
0
 62
7
  6
CONTINUOUS
370
0
390
F
  0
ENDTAB
  0
TABLE
  2
STYLE
  5
3
100
AcDbSymbolTable
 70
1
  0
STYLE
  5
11
100
AcDbSymbolTableRecord
100
AcDbTextStyleTableRecord
  2
Standard
 70
0
 40
0.0
 41
0.75
 50
0.0
 71
0
 42
2.5
  3
txt
  4

  0
ENDTAB
  0
TABLE
  2
VIEW
  5
6
100
AcDbSymbolTable
 70
0
  0
ENDTAB
  0
TABLE
  2
UCS
  5
7
100
AcDbSymbolTable
 70
0
  0
ENDTAB
  0
TABLE
  2
APPID
  5
9
100
AcDbSymbolTable
 70
1
  0
APPID
  5
12
100
AcDbSymbolTableRecord
100
AcDbRegAppTableRecord
  2
ACAD
 70
0
  0
ENDTAB
  0
TABLE
  2
DIMSTYLE
  5
A
100
AcDbSymbolTable
 70
1
100
AcDbDimStyleTable
 71
0
  0
DIMSTYLE
105
27
100
AcDbSymbolTableRecord
100
AcDbDimStyleTableRecord
  2
Standard
 41
2.5
 42
0.625
 43
3.75
 44
1.25
 70
0
 73
0
 74
0
 77
1
 78
8
140
2.5
141
2.5
143
0.03937007874016
147
0.625
171
3
172
1
271
2
272
2
274
3
278
44
283
0
284
8
340
11
  0
ENDTAB
  0
TABLE
  2
BLOCK_RECORD
  5
1
100
AcDbSymbolTable
 70
1
  0
BLOCK_RECORD
  5
1F
100
AcDbSymbolTableRecord
100
AcDbBlockTableRecord
  2
*Model_Space
340
22
  0
BLOCK_RECORD
  5
1B
100
AcDbSymbolTableRecord
100
AcDbBlockTableRecord
  2
*Paper_Space
340
1E
  0
BLOCK_RECORD
  5
23
100
AcDbSymbolTableRecord
100
AcDbBlockTableRecord
  2
*Paper_Space0
340
26
  0
ENDTAB
  0
ENDSEC
  0
SECTION
  2
BLOCKS
  0
BLOCK
  5
20
100
AcDbEntity
  8
0
100
AcDbBlockBegin
  2
*Model_Space
 70
0
 10
0.0
 20
0.0
 30
0.0
  3
*Model_Space
  1

  0
ENDBLK
  5
21
100
AcDbEntity
  8
0
100
AcDbBlockEnd
  0
BLOCK
  5
1C
100
AcDbEntity
 67
1
  8
0
100
AcDbBlockBegin
  2
*Paper_Space
 70
0
 10
0.0
 20
0.0
 30
0.0
  3
*Paper_Space
  1

  0
ENDBLK
  5
1D
100
AcDbEntity
 67
1
  8
0
100
AcDbBlockEnd
  0
BLOCK
  5
24
100
AcDbEntity
  8
0
100
AcDbBlockBegin
  2
*Paper_Space0
 70
0
 10
0.0
 20
0.0
 30
0.0
  3
*Paper_Space0
  1

  0
ENDBLK
  5
25
100
AcDbEntity
  8
0
100
AcDbBlockEnd
  0
ENDSEC
  0
SECTION
  2
ENTITIES
  0
HATCH
  5
43
  8
0
 62
7
370
9
  6
ByLayer
100
AcDbEntity
100
AcDbHatch
 10
0.0
 20
0.0
 30
0.0
210
0.0
220
0.0
230
1.0
  2
kerpele
 70
0
 71
0
 91
1
 92
1
 93
4
 72
1
 10
224.8420695733530863
 20
261.8117592446263302
 11
292.202069573358699
 21
261.8117592446263302
 72
1
 10
292.202069573358699
 20
261.8117592446263302
 11
292.202069573358699
 21
270.1317592446270055
 72
1
 10
292.202069573358699
 20
270.1317592446270055
 11
224.8420695733530863
 21
270.1317592446270055
 72
1
 10
224.8420695733530863
 20
270.1317592446270055
 11
224.8420695733530863
 21
261.8117592446263302
 97
0
 75
0
 76
1
 52
0.0
 41
0.5
 77
0
 78
1
 53
45.0
 43
0.0
 44
0.0
 45
-0.0883883476483184
 46
0.0883883476483185
 79
0
 98
0
  0
HATCH
  5
44
  8
0
 62
7
370
9
  6
ByLayer
100
AcDbEntity
100
AcDbHatch
 10
0.0
 20
0.0
 30
0.0
210
0.0
220
0.0
230
1.0
  2
kerpele
 70
0
 71
0
 91
1
 92
1
 93
4
 72
1
 10
30.1630070733244793
 20
133.38695455711931
 11
42.3700383233247635
 21
133.38695455711931
 72
1
 10
42.3700383233247635
 20
133.38695455711931
 11
42.3700383233247635
 21
62.5861733071176616
 72
1
 10
42.3700383233247635
 20
62.5861733071176616
 11
30.1630070733244793
 21
62.5861733071176616
 72
1
 10
30.1630070733244793
 20
62.5861733071176616
 11
30.1630070733244793
 21
133.38695455711931
 97
0
 75
0
 76
1
 52
0.0
 41
0.5
 77
0
 78
1
 53
45.0
 43
0.0
 44
0.0
 45
-0.0883883476483184
 46
0.0883883476483185
 79
0
 98
0
  0
LINE
  5
45
100
AcDbEntity
100
AcDbLine
  8
0
 62
256
370
100
  6
ByLayer
 10
224.6101817416351594
 20
261.7350964657654231
 30
0.0
 11
291.5047129916351878
 21
261.7350964657654231
 31
0.0
  0
LINE
  5
46
100
AcDbEntity
100
AcDbLine
  8
0
 62
256
370
100
  6
ByLayer
 10
257.8133067416351878
 20
193.8640027157654515
 30
0.0
 11
249.5125254916351594
 21
174.3327527157654515
 31
0.0
  0
LINE
  5
47
100
AcDbEntity
100
AcDbLine
  8
0
 62
256
370
100
  6
ByLayer
 10
249.5125254916351594
 20
174.3327527157654515
 30
0.0
 11
249.5125254916351594
 21
103.0436902157654515
 31
0.0
  0
LINE
  5
48
100
AcDbEntity
100
AcDbLine
  8
0
 62
256
370
100
  6
ByLayer
 10
249.5125254916351594
 20
103.0436902157654515
 30
0.0
 11
240.9544629916353244
 21
88.7456902157655634
 31
0.0
  0
LINE
  5
49
100
AcDbEntity
100
AcDbLine
  8
0
 62
256
370
100
  6
ByLayer
 10
240.9544629916353244
 20
88.7456902157655634
 30
0.0
 11
241.2104629916353531
 21
-32.2143097842345298
 31
0.0
  0
LINE
  5
4A
100
AcDbEntity
100
AcDbLine
  8
0
 62
256
370
100
  6
ByLayer
 10
241.2104629916353531
 20
-32.2143097842345298
 30
0.0
 11
246.970462991635344
 21
-26.8383097842344966
 31
0.0
  0
LINE
  5
4B
100
AcDbEntity
100
AcDbLine
  8
0
 62
256
370
100
  6
ByLayer
 10
246.970462991635344
 20
-26.8383097842344966
 30
0.0
 11
236.0904629916353485
 21
-37.2063097842345485
 31
0.0
  0
LINE
  5
4C
100
AcDbEntity
100
AcDbLine
  8
0
 62
256
370
100
  6
ByLayer
 10
236.0904629916353485
 20
-37.2063097842345485
 30
0.0
 11
241.7224629916353535
 21
-31.9583097842345012
 31
0.0
  0
LINE
  5
4D
100
AcDbEntity
100
AcDbLine
  8
0
 62
256
370
100
  6
ByLayer
 10
241.7224629916353535
 20
-31.9583097842345012
 30
0.0
 11
247.4824629916353445
 21
-37.0783097842345057
 31
0.0
  0
LINE
  5
4E
100
AcDbEntity
100
AcDbLine
  8
0
 62
256
370
100
  6
ByLayer
 10
247.4824629916353445
 20
-37.0783097842345057
 30
0.0
 11
236.9864629916353636
 21
-26.9663097842345394
 31
0.0
  0
LINE
  5
4F
100
AcDbEntity
100
AcDbLine
  8
0
 62
256
370
100
  6
ByLayer
 10
225.5867442416354436
 20
127.4577527157656505
 30
0.0
 11
271.9734629916355289
 21
80.5827527157655652
 31
0.0
  0
LINE
  5
50
100
AcDbEntity
100
AcDbLine
  8
0
 62
256
370
100
  6
ByLayer
 10
271.9734629916355289
 20
80.5827527157655652
 30
0.0
 11
260.7429942416354152
 21
68.8640027157655652
 31
0.0
  0
LINE
  5
51
100
AcDbEntity
100
AcDbLine
  8
0
 62
256
370
100
  6
ByLayer
 10
260.7429942416354152
 20
68.8640027157655652
 30
0.0
 11
214.3562754916354436
 21
116.715565215765622
 31
0.0
  0
LINE
  5
52
100
AcDbEntity
100
AcDbLine
  8
0
 62
256
370
100
  6
ByLayer
 10
273.9265879916355289
 20
153.3366589657656789
 30
0.0
 11
286.6219004916355289
 21
166.5202527157656789
 31
0.0
  0
LINE
  5
53
100
AcDbEntity
100
AcDbLine
  8
0
 62
256
370
100
  6
ByLayer
 10
286.6219004916355289
 20
166.5202527157656789
 30
0.0
 11
238.0984629916355573
 21
215.0436902157658494
 31
0.0
  0
LINE
  5
54
100
AcDbEntity
100
AcDbLine
  8
0
 62
256
370
100
  6
ByLayer
 10
238.0984629916355573
 20
215.0436902157658494
 30
0.0
 11
224.8484629916355573
 21
200.293690215765821
 31
0.0
  0
LINE
  5
55
100
AcDbEntity
100
AcDbLine
  8
0
 62
256
370
100
  6
ByLayer
 10
224.8484629916355573
 20
200.293690215765821
 30
0.0
 11
272.5984629916356425
 21
152.7936902157657357
 31
0.0
  0
LINE
  5
56
100
AcDbEntity
100
AcDbLine
  8
0
 62
256
370
100
  6
ByLayer
 10
250.0008067416356141
 20
104.0202527157656789
 30
0.0
 11
43.9461192416352731
 21
104.0202527157656789
 31
0.0
  0
LINE
  5
57
100
AcDbEntity
100
AcDbLine
  8
0
 62
256
370
100
  6
DASHED2
 10
87.8914317416353299
 20
135.2702527157657642
 30
0.0
 11
88.5857066439791367
 21
63.1419568173281789
 31
0.0
  0
LINE
  5
58
100
AcDbEntity
100
AcDbLine
  8
0
 62
256
370
100
  6
ByLayer
 10
240.8020695733242462
 20
112.4117592446198017
 30
0.0
 11
438.4773692416356425
 21
112.809315215765622
 31
0.0
  0
LINE
  5
59
100
AcDbEntity
100
AcDbLine
  8
0
 62
256
370
100
  6
ByLayer
 10
250.0008067416354436
 20
104.508533965765622
 30
0.0
 11
438.5700695733282828
 21
106.0037592446194736
 31
0.0
  0
SPLINE
  5
5A
  8
0
 62
7
370
100
  6
ByLayer
100
AcDbEntity
100
AcDbSpline
 70
8
 71
3
 72
9
 73
5
 74
0
 40
0.0
 40
0.0
 40
0.0
 40
0.0
 40
0.5
 40
1.0
 40
1.0
 40
1.0
 40
1.0
 10
448.1700695733284192
 20
109.3317592446195192
 30
0.0
 10
445.9940695733283746
 20
109.971759244619534
 30
0.0
 10
443.8180695733283301
 20
111.5077592446195496
 30
0.0
 10
442.9220695733282582
 20
113.5557592446195798
 30
0.0
 10
442.5380695733282437
 20
117.2677592446196257
 30
0.0
  0
SPLINE
  5
5B
  8
0
 62
7
370
100
  6
ByLayer
100
AcDbEntity
100
AcDbSpline
 70
8
 71
3
 72
8
 73
4
 74
0
 40
0.0
 40
0.0
 40
0.0
 40
0.0
 40
1.0
 40
1.0
 40
1.0
 40
1.0
 10
448.1700695733284192
 20
109.5877592446195194
 30
0.0
 10
444.9700695733283737
 20
107.0277592446194888
 30
0.0
 10
442.4100695733283146
 20
103.3157592446194428
 30
0.0
 10
442.2820695733282719
 20
100.1157592446193974
 30
0.0
  0
SPLINE
  5
5C
  8
0
 62
7
370
100
  6
ByLayer
100
AcDbEntity
100
AcDbSpline
 70
8
 71
3
 72
9
 73
5
 74
0
 40
0.0
 40
0.0
 40
0.0
 40
0.0
 40
0.5
 40
1.0
 40
1.0
 40
1.0
 40
1.0
 10
442.7940695733283292
 20
113.4277592446195797
 30
0.0
 10
441.3860695733283137
 20
110.6117592446195346
 30
0.0
 10
441.3860695733283137
 20
107.5397592446195034
 30
0.0
 10
442.2820695733282719
 20
105.7477592446194734
 30
0.0
 10
443.1780695733283437
 20
104.5957592446194582
 30
0.0
  0
SPLINE
  5
5D
  8
0
 62
7
370
100
  6
ByLayer
100
AcDbEntity
100
AcDbSpline
 70
8
 71
3
 72
10
 73
6
 74
0
 40
0.0
 40
0.0
 40
0.0
 40
0.0
 40
0.3333333333333333
 40
0.6666666666666666
 40
1.0
 40
1.0
 40
1.0
 40
1.0
 10
442.2697815733293965
 20
111.2363992446193919
 30
0.0
 10
442.5319255733294312
 20
110.2533592446193751
 30
0.0
 10
442.6629975733294486
 20
109.2047832446193638
 30
0.0
 10
442.6629975733294486
 20
108.6149592446193566
 30
0.0
 10
442.4008535733294138
 20
107.762991244619343
 30
0.0
 10
442.2042455733294446
 20
107.107631244619327
 30
0.0
  0
LINE
  5
5E
100
AcDbEntity
100
AcDbLine
  8
0
 62
7
370
100
  6
ByLayer
 10
257.8020695733283674
 20
194.8117592446207311
 30
0.0
 11
257.8020695733283674
 21
261.8117592446220669
 31
0.0
  0
MTEXT
  5
5F
100
AcDbEntity
100
AcDbMText
  8
0
 62
7
370
100
  6
ByLayer
 10
260.0843480157113845
 20
-27.9175193198369413
 30
0.0
 40
18.0
 41
100.0
 71
5
 72
2
  1
S
  7
normal
 50
0.0
 73
0
 44
1.0
  0
MTEXT
  5
60
100
AcDbEntity
100
AcDbMText
  8
0
 62
7
370
100
  6
ByLayer
 10
289.5886471795305397
 20
76.4651148430679655
 30
0.0
 40
18.0
 41
100.0
 71
5
 72
2
  1
P
  7
normal
 50
0.0
 73
0
 44
1.0
  0
MTEXT
  5
61
100
AcDbEntity
100
AcDbMText
  8
0
 62
7
370
100
  6
ByLayer
 10
300.7645180749165092
 20
169.5973723046177497
 30
0.0
 40
18.0
 41
100.0
 71
5
 72
2
  1
P
  7
normal
 50
0.0
 73
0
 44
1.0
  0
MTEXT
  5
62
100
AcDbEntity
100
AcDbMText
  8
0
 62
7
370
100
  6
ByLayer
 10
259.7863247918346588
 20
132.3444693199978417
 30
0.0
 40
18.0
 41
100.0
 71
5
 72
2
  1
A
  7
normal
 50
0.0
 73
0
 44
1.0
  0
MTEXT
  5
63
100
AcDbEntity
100
AcDbMText
  8
0
 62
7
370
100
  6
ByLayer
 10
425.5617430733932451
 20
134.2071144692288271
 30
0.0
 40
18.0
 41
100.0
 71
5
 72
2
  1
G
  7
normal
 50
0.0
 73
0
 44
1.0
  0
MTEXT
  5
64
100
AcDbEntity
100
AcDbMText
  8
0
 62
7
370
100
  6
ByLayer
 10
237.4345830010626912
 20
150.9709208123077815
 30
0.0
 40
18.0
 41
100.0
 71
5
 72
2
  1
1
  7
normal
 50
0.0
 73
0
 44
1.0
  0
MTEXT
  5
65
100
AcDbEntity
100
AcDbMText
  8
0
 62
7
370
100
  6
ByLayer
 10
153.6155512856678627
 20
126.7565338723048569
 30
0.0
 40
18.0
 41
100.0
 71
5
 72
2
  1
2
  7
normal
 50
0.0
 73
0
 44
1.0
  0
LEADER
  5
66
  8
0
 62
7
370
100
  6
ByLayer
100
AcDbEntity
100
AcDbLeader
  3
Standard
 71
1
 72
0
 73
3
 74
0
 75
0
 40
1.0
 41
10.0
 76
2
 10
257.4520695733291404
 20
237.811759244621669
 10
257.7020695733291404
 20
221.0617592446212996
  0
MTEXT
  5
67
100
AcDbEntity
100
AcDbMText
  8
0
 62
7
370
100
  6
ByLayer
 10
39.547162346761894
 20
49.5685188881722638
 30
0.0
 40
18.0
 41
100.0
 71
5
 72
2
  1
M
  7
normal
 50
0.0
 73
0
 44
1.0
  0
MTEXT
  5
68
100
AcDbEntity
100
AcDbMText
  8
0
 62
7
370
100
  6
ByLayer
 10
90.8071568535989684
 20
49.5685188881722638
 30
0.0
 40
18.0
 41
100.0
 71
5
 72
2
  1
M
  7
normal
 50
0.0
 73
0
 44
1.0
  0
MTEXT
  5
69
100
AcDbEntity
100
AcDbMText
  8
0
 62
7
370
100
  6
ByLayer
 10
306.5759709405176636
 20
262.9531471840753056
 30
0.0
 40
18.0
 41
100.0
 71
5
 72
2
  1
M
  7
normal
 50
0.0
 73
0
 44
1.0
  0
MTEXT
  5
6A
100
AcDbEntity
100
AcDbMText
  8
0
 62
7
370
100
  6
ByLayer
 10
320.8810856866117547
 20
252.2243111245047942
 30
0.0
 40
9.0
 41
100.0
 71
5
 72
2
  1
1
  7
normal
 50
0.0
 73
0
 44
1.0
  0
MTEXT
  5
6B
100
AcDbEntity
100
AcDbMText
  8
0
 62
7
370
100
  6
ByLayer
 10
300.7645180749170777
 20
63.4265987984508683
 30
0.0
 40
9.0
 41
100.0
 71
5
 72
2
  1
1
  7
normal
 50
0.0
 73
0
 44
1.0
  0
MTEXT
  5
6C
100
AcDbEntity
100
AcDbMText
  8
0
 62
7
370
100
  6
ByLayer
 10
106.3043644952008719
 20
38.8396828286016955
 30
0.0
 40
9.0
 41
100.0
 71
5
 72
2
  1
1
  7
normal
 50
0.0
 73
0
 44
1.0
  0
MTEXT
  5
6D
100
AcDbEntity
100
AcDbMText
  8
0
 62
7
370
100
  6
ByLayer
 10
307.8729680108305047
 20
161.4631264321199637
 30
0.0
 40
9.0
 41
100.0
 71
5
 72
2
  1
2
  7
normal
 50
0.0
 73
0
 44
1.0
  0
MTEXT
  5
6E
100
AcDbEntity
100
AcDbMText
  8
0
 62
7
370
100
  6
ByLayer
 10
52.7460148858248203
 20
40.0031654946172637
 30
0.0
 40
9.0
 41
100.0
 71
5
 72
2
  1
2
  7
normal
 50
0.0
 73
0
 44
1.0
  0
LINE
  5
6F
100
AcDbEntity
100
AcDbLine
  8
0
 62
7
370
100
  6
ByLayer
 10
106.4520695733261562
 20
58.5617592446176047
 30
0.0
 11
106.7020695733261562
 21
67.5617592446178179
 31
0.0
  0
LINE
  5
70
100
AcDbEntity
100
AcDbLine
  8
0
 62
7
370
100
  6
ByLayer
 10
42.3700383233247635
 20
133.38695455711931
 30
0.0
 11
42.3700383233247635
 21
62.5861733071176616
 31
0.0
  0
LEADER
  5
71
  8
0
 62
7
370
100
  6
ByLayer
100
AcDbEntity
100
AcDbLeader
  3
Standard
 71
1
 72
0
 73
3
 74
0
 75
0
 40
1.0
 41
10.0
 76
2
 10
138.431269573328251
 20
104.0274392446183072
 10
169.1812695733289331
 20
104.0274392446183072
  0
LINE
  5
72
100
AcDbEntity
100
AcDbLine
  8
0
 62
7
370
9
  6
ByLayer
 10
225.450069573331433
 20
128.2757592446187687
 30
0.0
 11
272.1185284584599913
 21
81.1118173975756065
 31
0.0
  0
LINE
  5
73
100
AcDbEntity
100
AcDbLine
  8
0
 62
7
370
9
  6
ByLayer
 10
224.8420695733530863
 20
261.8117592446263302
 30
0.0
 11
292.202069573358699
 21
261.8117592446263302
 31
0.0
  0
LINE
  5
74
100
AcDbEntity
100
AcDbLine
  8
0
 62
256
370
100
  6
ByLayer
 10
214.3562754916354436
 20
116.715565215765622
 30
0.0
 11
225.2145495733557539
 21
127.9480792446148314
 31
0.0
  0
LINE
  5
75
100
AcDbEntity
100
AcDbLine
  8
0
 62
7
370
9
  6
ByLayer
 10
269.1236695733609849
 20
83.7931992446105625
 30
0.0
 11
277.1236695733609849
 21
83.7931992446105625
 31
0.0
  0
LINE
  5
76
100
AcDbEntity
100
AcDbLine
  8
0
 62
7
370
9
  6
ByLayer
 10
264.2084695733605031
 20
89.2818392446110778
 30
0.0
 11
272.2084695733605031
 21
89.2818392446110778
 31
0.0
  0
LINE
  5
77
100
AcDbEntity
100
AcDbLine
  8
0
 62
7
370
9
  6
ByLayer
 10
259.4571095733600714
 20
93.8693592446115019
 30
0.0
 11
267.4571095733600714
 21
93.8693592446115019
 31
0.0
  0
LINE
  5
78
100
AcDbEntity
100
AcDbLine
  8
0
 62
7
370
9
  6
ByLayer
 10
254.2961495733595996
 20
98.7845592446119554
 30
0.0
 11
262.2961495733595711
 21
98.7845592446119554
 31
0.0
  0
LINE
  5
79
100
AcDbEntity
100
AcDbLine
  8
0
 62
7
370
9
  6
ByLayer
 10
249.5447895733591679
 20
103.7816792446124055
 30
0.0
 11
257.5447895733591395
 21
103.7816792446124055
 31
0.0
  0
LINE
  5
7A
100
AcDbEntity
100
AcDbLine
  8
0
 62
7
370
9
  6
ByLayer
 10
244.8753495733587613
 20
108.4511192446128405
 30
0.0
 11
252.8753495733587613
 21
108.4511192446128405
 31
0.0
  0
LINE
  5
7B
100
AcDbEntity
100
AcDbLine
  8
0
 62
7
370
9
  6
ByLayer
 10
239.2228695733582242
 20
113.8578392446133449
 30
0.0
 11
247.2228695733582242
 21
113.8578392446133449
 31
0.0
  0
LINE
  5
7C
100
AcDbEntity
100
AcDbLine
  8
0
 62
7
370
9
  6
ByLayer
 10
234.3076695733583676
 20
119.0187992446137031
 30
0.0
 11
242.3076695733583676
 21
119.0187992446137031
 31
0.0
  0
LINE
  5
7D
100
AcDbEntity
100
AcDbLine
  8
0
 62
7
370
9
  6
ByLayer
 10
229.8020695733579544
 20
123.8520792446141598
 30
0.0
 11
237.8020695733579544
 21
123.8520792446141598
 31
0.0
  0
LINE
  5
7E
100
AcDbEntity
100
AcDbLine
  8
0
 62
7
370
9
  6
ByLayer
 10
225.3783895733575093
 20
128.5215192446145807
 30
0.0
 11
233.3783895733575093
 21
128.5215192446145807
 31
0.0
  0
ENDSEC
  0
SECTION
  2
OBJECTS
  0
DICTIONARY
  5
C
100
AcDbDictionary
280
0
281
1
  3
ACAD_GROUP
350
D
  3
ACAD_LAYOUT
350
1A
  3
ACAD_MLINESTYLE
350
17
  3
ACAD_PLOTSETTINGS
350
19
  3
ACAD_PLOTSTYLENAME
350
E
  3
AcDbVariableDictionary
350
7F
  0
DICTIONARY
  5
D
100
AcDbDictionary
280
0
281
1
  0
ACDBDICTIONARYWDFLT
  5
E
100
AcDbDictionary
281
1
  3
Normal
350
F
100
AcDbDictionaryWithDefault
340
F
  0
ACDBPLACEHOLDER
  5
F
  0
DICTIONARY
  5
17
100
AcDbDictionary
280
0
281
1
  3
Standard
350
18
  0
MLINESTYLE
  5
18
100
AcDbMlineStyle
  2
STANDARD
 70
0
  3

 62
256
 51
90.0
 52
90.0
 71
2
 49
0.5
 62
256
  6
BYLAYER
 49
-0.5
 62
256
  6
BYLAYER
  0
DICTIONARY
  5
19
100
AcDbDictionary
280
0
281
1
  0
DICTIONARY
  5
1A
100
AcDbDictionary
281
1
  3
Layout1
350
1E
  3
Layout2
350
26
  3
Model
350
22
  0
LAYOUT
  5
1E
100
AcDbPlotSettings
  1

  2
C:\Program Files\AutoCAD 2002\plotters\DWF ePlot (optimized for plotting).pc3
  4

  6

 40
0.0
 41
0.0
 42
0.0
 43
0.0
 44
0.0
 45
0.0
 46
0.0
 47
0.0
 48
0.0
 49
0.0
140
0.0
141
0.0
142
1.0
143
1.0
 70
688
 72
0
 73
0
 74
5
  7

 75
16
147
1.0
148
0.0
149
0.0
100
AcDbLayout
  1
Layout1
 70
1
 71
1
 10
0.0
 20
0.0
 11
420.0
 21
297.0
 12
0.0
 22
0.0
 32
0.0
 14
100000000000000000000.0
 24
100000000000000000000.0
 34
100000000000000000000.0
 15
-100000000000000000000.0
 25
-100000000000000000000.0
 35
-100000000000000000000.0
146
0.0
 13
0.0
 23
0.0
 33
0.0
 16
1.0
 26
0.0
 36
0.0
 17
0.0
 27
1.0
 37
0.0
 76
0
330
1B
  0
LAYOUT
  5
22
100
AcDbPlotSettings
  1

  2
C:\Program Files\AutoCAD 2002\plotters\DWF ePlot (optimized for plotting).pc3
  4

  6

 40
0.0
 41
0.0
 42
0.0
 43
0.0
 44
0.0
 45
0.0
 46
0.0
 47
0.0
 48
0.0
 49
0.0
140
0.0
141
0.0
142
1.0
143
1.0
 70
1712
 72
0
 73
0
 74
0
  7

 75
0
147
1.0
148
0.0
149
0.0
100
AcDbLayout
  1
Model
 70
1
 71
0
 10
0.0
 20
0.0
 11
12.0
 21
9.0
 12
0.0
 22
0.0
 32
0.0
 14
0.0
 24
0.0
 34
0.0
 15
0.0
 25
0.0
 35
0.0
146
0.0
 13
0.0
 23
0.0
 33
0.0
 16
1.0
 26
0.0
 36
0.0
 17
0.0
 27
1.0
 37
0.0
 76
0
330
1F
  0
LAYOUT
  5
26
100
AcDbPlotSettings
  1

  2
C:\Program Files\AutoCAD 2002\plotters\DWF ePlot (optimized for plotting).pc3
  4

  6

 40
0.0
 41
0.0
 42
0.0
 43
0.0
 44
0.0
 45
0.0
 46
0.0
 47
0.0
 48
0.0
 49
0.0
140
0.0
141
0.0
142
1.0
143
1.0
 70
688
 72
0
 73
0
 74
5
  7

 75
16
147
1.0
148
0.0
149
0.0
100
AcDbLayout
  1
Layout2
 70
1
 71
2
 10
0.0
 20
0.0
 11
12.0
 21
9.0
 12
0.0
 22
0.0
 32
0.0
 14
0.0
 24
0.0
 34
0.0
 15
0.0
 25
0.0
 35
0.0
146
0.0
 13
0.0
 23
0.0
 33
0.0
 16
1.0
 26
0.0
 36
0.0
 17
0.0
 27
1.0
 37
0.0
 76
0
330
23
  0
DICTIONARY
  5
7F
100
AcDbDictionary
281
1
  3
DIMASSOC
350
81
  3
HIDETEXT
350
80
  0
DICTIONARYVAR
  5
80
100
DictionaryVariables
280
0
  1
2
  0
DICTIONARYVAR
  5
81
100
DictionaryVariables
280
0
  1
1
  0
ENDSEC
  0
EOF
