999
dxflib 2.0.4.8
  0
SECTION
  2
HEADER
  9
$ACADVER
  1
AC1015
  9
$HANDSEED
  5
FFFF
  9
$DIMASZ
 40
2.5
  9
$DIMGAP
 40
0.625
  9
$DIMEXO
 40
0.625
  9
$INSUNITS
 70
4
  9
$DIMTXT
 40
2.5
  9
$PLIMMAX
 10
210.0
 20
297.0
  9
$PLIMMIN
 10
0.0
 20
0.0
  9
$DIMEXE
 40
1.25
  0
ENDSEC
  0
SECTION
  2
TABLES
  0
TABLE
  2
VPORT
  5
8
100
AcDbSymbolTable
 70
1
  0
VPORT
  5
30
100
AcDbSymbolTableRecord
100
AcDbViewportTableRecord
  2
*Active
 70
0
 10
0.0
 20
0.0
 11
1.0
 21
1.0
 12
286.3055555555554861
 22
148.5
 13
0.0
 23
0.0
 14
10.0
 24
10.0
 15
10.0
 25
10.0
 16
0.0
 26
0.0
 36
1.0
 17
0.0
 27
0.0
 37
0.0
 40
297.0
 41
1.92798353909465
 42
50.0
 43
0.0
 44
0.0
 50
0.0
 51
0.0
 71
0
 72
100
 73
1
 74
3
 75
1
 76
1
 77
0
 78
0
281
0
 65
1
110
0.0
120
0.0
130
0.0
111
1.0
121
0.0
131
0.0
112
0.0
122
1.0
132
0.0
 79
0
146
0.0
  0
ENDTAB
  0
TABLE
  2
LTYPE
  5
5
100
AcDbSymbolTable
 70
21
  0
LTYPE
  5
14
100
AcDbSymbolTableRecord
100
AcDbLinetypeTableRecord
  2
ByBlock
 70
0
  3

 72
65
 73
0
 40
0.0
  0
LTYPE
  5
15
100
AcDbSymbolTableRecord
100
AcDbLinetypeTableRecord
  2
ByLayer
 70
0
  3

 72
65
 73
0
 40
0.0
  0
LTYPE
  5
16
100
AcDbSymbolTableRecord
100
AcDbLinetypeTableRecord
  2
CONTINUOUS
 70
0
  3
Solid line
 72
65
 73
0
 40
0.0
  0
LTYPE
  5
31
100
AcDbSymbolTableRecord
100
AcDbLinetypeTableRecord
  2
DOT
 70
0
  3
Dot . . . . . . . . . . . . . . . . . . . . . .
 72
65
 73
2
 40
6.3499999999999996
 49
0.0
 74
0
 49
-6.3499999999999996
 74
0
  0
LTYPE
  5
32
100
AcDbSymbolTableRecord
100
AcDbLinetypeTableRecord
  2
DOT2
 70
0
  3
Dot (.5x) .....................................
 72
65
 73
2
 40
3.1749999999999998
 49
0.0
 74
0
 49
-3.1749999999999998
 74
0
  0
LTYPE
  5
33
100
AcDbSymbolTableRecord
100
AcDbLinetypeTableRecord
  2
DOTX2
 70
0
  3
Dot (2x) .  .  .  .  .  .  .  .  .  .  .  .  .
 72
65
 73
2
 40
12.6999999999999993
 49
0.0
 74
0
 49
-12.6999999999999993
 74
0
  0
LTYPE
  5
34
100
AcDbSymbolTableRecord
100
AcDbLinetypeTableRecord
  2
DASHED
 70
0
  3
Dashed __ __ __ __ __ __ __ __ __ __ __ __ __ _
 72
65
 73
2
 40
19.0500000000000007
 49
12.6999999999999993
 74
0
 49
-6.3499999999999996
 74
0
  0
LTYPE
  5
35
100
AcDbSymbolTableRecord
100
AcDbLinetypeTableRecord
  2
DASHED2
 70
0
  3
Dashed (.5x) _ _ _ _ _ _ _ _ _ _ _ _ _ _ _ _ _
 72
65
 73
2
 40
9.5250000000000004
 49
6.3499999999999996
 74
0
 49
-3.1749999999999998
 74
0
  0
LTYPE
  5
36
100
AcDbSymbolTableRecord
100
AcDbLinetypeTableRecord
  2
DASHEDX2
 70
0
  3
Dashed (2x) ____  ____  ____  ____  ____  ___
 72
65
 73
2
 40
38.1000000000000014
 49
25.3999999999999986
 74
0
 49
-12.6999999999999993
 74
0
  0
LTYPE
  5
37
100
AcDbSymbolTableRecord
100
AcDbLinetypeTableRecord
  2
DASHDOT
 70
0
  3
Dash dot __ . __ . __ . __ . __ . __ . __ . __
 72
65
 73
4
 40
25.3999999999999986
 49
12.6999999999999993
 74
0
 49
-6.3499999999999996
 74
0
 49
0.0
 74
0
 49
-6.3499999999999996
 74
0
  0
LTYPE
  5
38
100
AcDbSymbolTableRecord
100
AcDbLinetypeTableRecord
  2
DASHDOT2
 70
0
  3
Dash dot (.5x) _._._._._._._._._._._._._._._.
 72
65
 73
4
 40
12.6999999999999993
 49
6.3499999999999996
 74
0
 49
-3.1749999999999998
 74
0
 49
0.0
 74
0
 49
-3.1749999999999998
 74
0
  0
LTYPE
  5
39
100
AcDbSymbolTableRecord
100
AcDbLinetypeTableRecord
  2
DASHDOTX2
 70
0
  3
Dash dot (2x) ____  .  ____  .  ____  .  ___
 72
65
 73
4
 40
50.7999999999999972
 49
25.3999999999999986
 74
0
 49
-12.6999999999999993
 74
0
 49
0.0
 74
0
 49
-12.6999999999999993
 74
0
  0
LTYPE
  5
3A
100
AcDbSymbolTableRecord
100
AcDbLinetypeTableRecord
  2
DIVIDE
 70
0
  3
Divide ____ . . ____ . . ____ . . ____ . . ____
 72
65
 73
6
 40
31.75
 49
12.6999999999999993
 74
0
 49
-6.3499999999999996
 74
0
 49
0.0
 74
0
 49
-6.3499999999999996
 74
0
 49
0.0
 74
0
 49
-6.3499999999999996
 74
0
  0
LTYPE
  5
3B
100
AcDbSymbolTableRecord
100
AcDbLinetypeTableRecord
  2
DIVIDE2
 70
0
  3
Divide (.5x) __..__..__..__..__..__..__..__.._
 72
65
 73
6
 40
15.875
 49
6.3499999999999996
 74
0
 49
-3.1749999999999998
 74
0
 49
0.0
 74
0
 49
-3.1749999999999998
 74
0
 49
0.0
 74
0
 49
-3.1749999999999998
 74
0
  0
LTYPE
  5
3C
100
AcDbSymbolTableRecord
100
AcDbLinetypeTableRecord
  2
DIVIDEX2
 70
0
  3
Divide (2x) ________  .  .  ________  .  .  _
 72
65
 73
6
 40
63.5
 49
25.3999999999999986
 74
0
 49
-12.6999999999999993
 74
0
 49
0.0
 74
0
 49
-12.6999999999999993
 74
0
 49
0.0
 74
0
 49
-12.6999999999999993
 74
0
  0
LTYPE
  5
3D
100
AcDbSymbolTableRecord
100
AcDbLinetypeTableRecord
  2
CENTER
 70
0
  3
Center ____ _ ____ _ ____ _ ____ _ ____ _ ____
 72
65
 73
4
 40
50.7999999999999972
 49
31.75
 74
0
 49
-6.3499999999999996
 74
0
 49
6.3499999999999996
 74
0
 49
-6.3499999999999996
 74
0
  0
LTYPE
  5
3E
100
AcDbSymbolTableRecord
100
AcDbLinetypeTableRecord
  2
CENTER2
 70
0
  3
Center (.5x) ___ _ ___ _ ___ _ ___ _ ___ _ ___
 72
65
 73
4
 40
28.5749999999999993
 49
19.0500000000000007
 74
0
 49
-3.1749999999999998
 74
0
 49
3.1749999999999998
 74
0
 49
-3.1749999999999998
 74
0
  0
LTYPE
  5
3F
100
AcDbSymbolTableRecord
100
AcDbLinetypeTableRecord
  2
CENTERX2
 70
0
  3
Center (2x) ________  __  ________  __  _____
 72
65
 73
4
 40
101.5999999999999943
 49
63.5
 74
0
 49
-12.6999999999999993
 74
0
 49
12.6999999999999993
 74
0
 49
-12.6999999999999993
 74
0
  0
LTYPE
  5
40
100
AcDbSymbolTableRecord
100
AcDbLinetypeTableRecord
  2
BORDER
 70
0
  3
Border __ __ . __ __ . __ __ . __ __ . __ __ .
 72
65
 73
6
 40
44.4500000000000028
 49
12.6999999999999993
 74
0
 49
-6.3499999999999996
 74
0
 49
12.6999999999999993
 74
0
 49
-6.3499999999999996
 74
0
 49
0.0
 74
0
 49
-6.3499999999999996
 74
0
  0
LTYPE
  5
41
100
AcDbSymbolTableRecord
100
AcDbLinetypeTableRecord
  2
BORDER2
 70
0
  3
Border (.5x) __.__.__.__.__.__.__.__.__.__.__.
 72
65
 73
6
 40
22.2250000000000014
 49
6.3499999999999996
 74
0
 49
-3.1749999999999998
 74
0
 49
6.3499999999999996
 74
0
 49
-3.1749999999999998
 74
0
 49
0.0
 74
0
 49
-3.1749999999999998
 74
0
  0
LTYPE
  5
42
100
AcDbSymbolTableRecord
100
AcDbLinetypeTableRecord
  2
BORDERX2
 70
0
  3
Border (2x) ____  ____  .  ____  ____  .  ___
 72
65
 73
6
 40
88.9000000000000057
 49
25.3999999999999986
 74
0
 49
-12.6999999999999993
 74
0
 49
25.3999999999999986
 74
0
 49
-12.6999999999999993
 74
0
 49
0.0
 74
0
 49
-12.6999999999999993
 74
0
  0
ENDTAB
  0
TABLE
  2
LAYER
  5
2
100
AcDbSymbolTable
 70
1
  0
LAYER
  5
10
100
AcDbSymbolTableRecord
100
AcDbLayerTableRecord
  2
0
 70
0
 62
7
  6
CONTINUOUS
370
0
390
F
  0
ENDTAB
  0
TABLE
  2
STYLE
  5
3
100
AcDbSymbolTable
 70
1
  0
STYLE
  5
11
100
AcDbSymbolTableRecord
100
AcDbTextStyleTableRecord
  2
Standard
 70
0
 40
0.0
 41
0.75
 50
0.0
 71
0
 42
2.5
  3
txt
  4

  0
ENDTAB
  0
TABLE
  2
VIEW
  5
6
100
AcDbSymbolTable
 70
0
  0
ENDTAB
  0
TABLE
  2
UCS
  5
7
100
AcDbSymbolTable
 70
0
  0
ENDTAB
  0
TABLE
  2
APPID
  5
9
100
AcDbSymbolTable
 70
1
  0
APPID
  5
12
100
AcDbSymbolTableRecord
100
AcDbRegAppTableRecord
  2
ACAD
 70
0
  0
ENDTAB
  0
TABLE
  2
DIMSTYLE
  5
A
100
AcDbSymbolTable
 70
1
100
AcDbDimStyleTable
 71
0
  0
DIMSTYLE
105
27
100
AcDbSymbolTableRecord
100
AcDbDimStyleTableRecord
  2
Standard
 41
2.5
 42
0.625
 43
3.75
 44
1.25
 70
0
 73
0
 74
0
 77
1
 78
8
140
2.5
141
2.5
143
0.03937007874016
147
0.625
171
3
172
1
271
2
272
2
274
3
278
44
283
0
284
8
340
11
  0
ENDTAB
  0
TABLE
  2
BLOCK_RECORD
  5
1
100
AcDbSymbolTable
 70
1
  0
BLOCK_RECORD
  5
1F
100
AcDbSymbolTableRecord
100
AcDbBlockTableRecord
  2
*Model_Space
340
22
  0
BLOCK_RECORD
  5
1B
100
AcDbSymbolTableRecord
100
AcDbBlockTableRecord
  2
*Paper_Space
340
1E
  0
BLOCK_RECORD
  5
23
100
AcDbSymbolTableRecord
100
AcDbBlockTableRecord
  2
*Paper_Space0
340
26
  0
ENDTAB
  0
ENDSEC
  0
SECTION
  2
BLOCKS
  0
BLOCK
  5
20
100
AcDbEntity
  8
0
100
AcDbBlockBegin
  2
*Model_Space
 70
0
 10
0.0
 20
0.0
 30
0.0
  3
*Model_Space
  1

  0
ENDBLK
  5
21
100
AcDbEntity
  8
0
100
AcDbBlockEnd
  0
BLOCK
  5
1C
100
AcDbEntity
 67
1
  8
0
100
AcDbBlockBegin
  2
*Paper_Space
 70
0
 10
0.0
 20
0.0
 30
0.0
  3
*Paper_Space
  1

  0
ENDBLK
  5
1D
100
AcDbEntity
 67
1
  8
0
100
AcDbBlockEnd
  0
BLOCK
  5
24
100
AcDbEntity
  8
0
100
AcDbBlockBegin
  2
*Paper_Space0
 70
0
 10
0.0
 20
0.0
 30
0.0
  3
*Paper_Space0
  1

  0
ENDBLK
  5
25
100
AcDbEntity
  8
0
100
AcDbBlockEnd
  0
ENDSEC
  0
SECTION
  2
ENTITIES
  0
LINE
  5
43
100
AcDbEntity
100
AcDbLine
  8
0
 62
256
370
100
  6
CONTINUOUS
 10
96.0
 20
60.0
 30
0.0
 11
104.0
 21
60.0
 31
0.0
  0
LINE
  5
44
100
AcDbEntity
100
AcDbLine
  8
0
 62
256
370
100
  6
CONTINUOUS
 10
104.0
 20
50.0
 30
0.0
 11
96.0
 21
50.0
 31
0.0
  0
LINE
  5
45
100
AcDbEntity
100
AcDbLine
  8
0
 62
256
370
100
  6
CONTINUOUS
 10
45.0
 20
48.0
 30
0.0
 11
55.0
 21
48.0
 31
0.0
  0
LINE
  5
46
100
AcDbEntity
100
AcDbLine
  8
0
 62
256
370
100
  6
CONTINUOUS
 10
55.0
 20
52.0
 30
0.0
 11
45.0
 21
52.0
 31
0.0
  0
CIRCLE
  5
47
100
AcDbEntity
100
AcDbCircle
  8
0
 62
256
370
50
  6
CONTINUOUS
 10
100.0
 20
58.5
 30
0.0
 40
1.5
  0
CIRCLE
  5
48
100
AcDbEntity
100
AcDbCircle
  8
0
 62
256
370
50
  6
CONTINUOUS
 10
100.0
 20
51.5
 30
0.0
 40
1.5
  0
CIRCLE
  5
49
100
AcDbEntity
100
AcDbCircle
  8
0
 62
256
370
50
  6
CONTINUOUS
 10
92.0
 20
60.5
 30
0.0
 40
1.5
  0
CIRCLE
  5
4A
100
AcDbEntity
100
AcDbCircle
  8
0
 62
256
370
100
  6
CONTINUOUS
 10
100.0
 20
55.0
 30
0.0
 40
12.2447305891134981
  0
LINE
  5
4B
100
AcDbEntity
100
AcDbLine
  8
0
 62
256
370
100
  6
CONTINUOUS
 10
0.0
 20
70.0
 30
0.0
 11
20.0
 21
70.0
 31
0.0
  0
LINE
  5
4C
100
AcDbEntity
100
AcDbLine
  8
0
 62
256
370
100
  6
CONTINUOUS
 10
20.0
 20
74.0
 30
0.0
 11
20.0
 21
66.0
 31
0.0
  0
LINE
  5
4D
100
AcDbEntity
100
AcDbLine
  8
0
 62
256
370
100
  6
CONTINUOUS
 10
20.0
 20
66.0
 30
0.0
 11
40.0
 21
66.0
 31
0.0
  0
LINE
  5
4E
100
AcDbEntity
100
AcDbLine
  8
0
 62
256
370
100
  6
CONTINUOUS
 10
40.0
 20
66.0
 30
0.0
 11
40.0
 21
74.0
 31
0.0
  0
LINE
  5
4F
100
AcDbEntity
100
AcDbLine
  8
0
 62
256
370
100
  6
CONTINUOUS
 10
40.0
 20
74.0
 30
0.0
 11
20.0
 21
74.0
 31
0.0
  0
LINE
  5
50
100
AcDbEntity
100
AcDbLine
  8
0
 62
256
370
100
  6
CONTINUOUS
 10
40.0
 20
70.0
 30
0.0
 11
100.0
 21
70.0
 31
0.0
  0
POINT
  5
51
100
AcDbEntity
100
AcDbPoint
  8
0
 62
256
370
200
  6
CONTINUOUS
 10
50.0
 20
70.0
 30
0.0
  0
CIRCLE
  5
52
100
AcDbEntity
100
AcDbCircle
  8
0
 62
256
370
100
  6
CONTINUOUS
 10
0.0
 20
55.0
 30
0.0
 40
5.0
  0
LINE
  5
53
100
AcDbEntity
100
AcDbLine
  8
0
 62
256
370
50
  6
CONTINUOUS
 10
-5.0
 20
51.0
 30
0.0
 11
5.0
 21
59.0
 31
0.0
  0
LINE
  5
54
100
AcDbEntity
100
AcDbLine
  8
0
 62
256
370
100
  6
CONTINUOUS
 10
0.0
 20
60.0
 30
0.0
 11
0.0
 21
70.0
 31
0.0
  0
LINE
  5
55
100
AcDbEntity
100
AcDbLine
  8
0
 62
256
370
100
  6
CONTINUOUS
 10
50.0
 20
52.0
 30
0.0
 11
50.0
 21
70.0
 31
0.0
  0
LINE
  5
56
100
AcDbEntity
100
AcDbLine
  8
0
 62
256
370
100
  6
CONTINUOUS
 10
100.0
 20
70.0
 30
0.0
 11
100.0
 21
60.0
 31
0.0
  0
CIRCLE
  5
57
100
AcDbEntity
100
AcDbCircle
  8
0
 62
256
370
100
  6
CONTINUOUS
 10
0.0
 20
40.0
 30
0.0
 40
5.0
  0
LINE
  5
58
100
AcDbEntity
100
AcDbLine
  8
0
 62
256
370
50
  6
CONTINUOUS
 10
-5.0
 20
35.0
 30
0.0
 11
5.0
 21
45.0
 31
0.0
  0
LINE
  5
59
100
AcDbEntity
100
AcDbLine
  8
0
 62
256
370
100
  6
CONTINUOUS
 10
0.0
 20
30.0
 30
0.0
 11
100.0
 21
30.0
 31
0.0
  0
POINT
  5
5A
100
AcDbEntity
100
AcDbPoint
  8
0
 62
256
370
200
  6
CONTINUOUS
 10
50.0
 20
30.0
 30
0.0
  0
LINE
  5
5B
100
AcDbEntity
100
AcDbLine
  8
0
 62
256
370
100
  6
CONTINUOUS
 10
0.0
 20
35.0
 30
0.0
 11
0.0
 21
30.0
 31
0.0
  0
LINE
  5
5C
100
AcDbEntity
100
AcDbLine
  8
0
 62
256
370
100
  6
CONTINUOUS
 10
50.0
 20
48.0
 30
0.0
 11
50.0
 21
30.0
 31
0.0
  0
LINE
  5
5D
100
AcDbEntity
100
AcDbLine
  8
0
 62
256
370
100
  6
CONTINUOUS
 10
100.0
 20
50.0
 30
0.0
 11
100.0
 21
30.0
 31
0.0
  0
LEADER
  5
5E
  8
0
 62
256
370
100
  6
CONTINUOUS
100
AcDbEntity
100
AcDbLeader
  3
Standard
 71
1
 72
0
 73
3
 74
0
 75
0
 40
1.0
 41
10.0
 76
2
 10
0.0
 20
20.0
 10
0.0
 20
-50.0
  0
LEADER
  5
5F
  8
0
 62
256
370
100
  6
CONTINUOUS
100
AcDbEntity
100
AcDbLeader
  3
Standard
 71
1
 72
0
 73
3
 74
0
 75
0
 40
1.0
 41
10.0
 76
2
 10
120.0
 20
-50.0
 10
0.0
 20
-50.0
  0
MTEXT
  5
60
100
AcDbEntity
100
AcDbMText
  8
0
 62
256
370
100
  6
CONTINUOUS
 10
60.3125000000011156
 20
49.6875000000009237
 30
0.0
 40
7.0
 41
100.0
 71
5
 72
0
  1
C
  7
normal
 50
0.0
 73
1
 44
1.0
  0
MTEXT
  5
61
100
AcDbEntity
100
AcDbMText
  8
0
 62
256
370
100
  6
CONTINUOUS
 10
30.3125000000005613
 20
60.3125000000011156
 30
0.0
 40
7.0
 41
100.0
 71
5
 72
0
  1
R
  7
normal
 50
0.0
 73
1
 44
1.0
  0
MTEXT
  5
62
100
AcDbEntity
100
AcDbMText
  8
0
 62
256
370
100
  6
CONTINUOUS
 10
10.3125000000001918
 20
56.2500000000010445
 30
0.0
 40
7.0
 41
100.0
 71
5
 72
0
  1
+
  7
normal
 50
0.0
 73
1
 44
1.0
  0
MTEXT
  5
63
100
AcDbEntity
100
AcDbMText
  8
0
 62
256
370
100
  6
CONTINUOUS
 10
10.6250000000001972
 20
40.3125000000007461
 30
0.0
 40
7.0
 41
100.0
 71
5
 72
0
  1
-
  7
normal
 50
0.0
 73
1
 44
1.0
  0
MTEXT
  5
64
100
AcDbEntity
100
AcDbMText
  8
0
 62
256
370
100
  6
CONTINUOUS
 10
6.8750000000001279
 20
17.1875000000003197
 30
0.0
 40
7.0
 41
100.0
 71
5
 72
0
  1
Uc
  7
normal
 50
0.0
 73
1
 44
1.0
  0
MTEXT
  5
65
100
AcDbEntity
100
AcDbMText
  8
0
 62
256
370
100
  6
CONTINUOUS
 10
118.1250000000021885
 20
-42.5000000000007887
 30
0.0
 40
7.0
 41
100.0
 71
5
 72
0
  1
t
  7
normal
 50
0.0
 73
1
 44
1.0
  0
MTEXT
  5
66
100
AcDbEntity
100
AcDbMText
  8
0
 62
256
370
100
  6
CONTINUOUS
 10
-6.2500000000001155
 20
8.125000000000151
 30
0.0
 40
7.0
 41
100.0
 71
5
 72
0
  1
E
  7
symbol
 50
0.0
 73
1
 44
1.0
  0
MTEXT
  5
67
100
AcDbEntity
100
AcDbMText
  8
0
 62
256
370
100
  6
CONTINUOUS
 10
-5.3125000000000995
 20
-2.5000000000000466
 30
0.0
 40
7.0
 41
100.0
 71
5
 72
0
  1
U
  7
normal
 50
0.0
 73
1
 44
1.0
  0
MTEXT
  5
68
100
AcDbEntity
100
AcDbMText
  8
0
 62
256
370
100
  6
CONTINUOUS
 10
-4.6875000000000879
 20
-34.3750000000006395
 30
0.0
 40
7.0
 41
100.0
 71
5
 72
0
  1
U
  7
normal
 50
0.0
 73
1
 44
1.0
  0
MTEXT
  5
69
100
AcDbEntity
100
AcDbMText
  8
0
 62
256
370
50
  6
CONTINUOUS
 10
-1.8432000000000419
 20
-6.5536000000001486
 30
0.0
 40
2.5
 41
100.0
 71
5
 72
0
  1
\U+0417
  7
cyrillic_ii
 50
0.0
 73
1
 44
1.0
  0
MTEXT
  5
6A
100
AcDbEntity
100
AcDbMText
  8
0
 62
256
370
50
  6
CONTINUOUS
 10
-1.3757317120000325
 20
-38.285606912000901
 30
0.0
 40
2.5
 41
100.0
 71
5
 72
0
  1
\U+0413
  7
cyrillic_ii
 50
0.0
 73
1
 44
1.0
  0
LINE
  5
6B
100
AcDbEntity
100
AcDbLine
  8
0
 62
256
370
50
  6
DASHED
 10
0.0
 20
10.0
 30
0.0
 11
120.0
 21
10.0
 31
0.0
  0
LINE
  5
6C
100
AcDbEntity
100
AcDbLine
  8
0
 62
256
370
50
  6
DASHED
 10
0.0
 20
-3.0
 30
0.0
 11
120.0
 21
-3.0
 31
0.0
  0
LINE
  5
6D
100
AcDbEntity
100
AcDbLine
  8
0
 62
256
370
50
  6
DASHED
 10
120.0
 20
-37.0
 30
0.0
 11
0.0
 21
-37.0
 31
0.0
  0
SPLINE
  5
6E
  8
0
 62
256
370
50
  6
DASHED
100
AcDbEntity
100
AcDbSpline
 70
8
 71
3
 72
15
 73
11
 74
0
 40
0.0
 40
0.0
 40
0.0
 40
0.0
 40
0.125
 40
0.25
 40
0.375
 40
0.5
 40
0.625
 40
0.75
 40
0.875
 40
1.0
 40
1.0
 40
1.0
 40
1.0
 10
0.0
 20
-50.0
 30
0.0
 10
3.0400000000000817
 20
-44.3200000000011869
 30
0.0
 10
8.4800000000002278
 20
-36.9600000000009956
 30
0.0
 10
15.3600000000004133
 20
-27.8400000000007495
 30
0.0
 10
24.9600000000006688
 20
-17.6000000000004739
 30
0.0
 10
39.3600000000010581
 20
-8.6400000000002315
 30
0.0
 10
58.88000000000158
 20
-0.4800000000000129
 30
0.0
 10
78.8800000000021129
 20
6.2400000000001672
 30
0.0
 10
97.6000000000026233
 20
8.4800000000002278
 30
0.0
 10
111.8400000000030019
 20
8.4800000000002278
 30
0.0
 10
120.8000000000032514
 20
8.9600000000002407
 30
0.0
  0
SPLINE
  5
6F
  8
0
 62
256
370
100
  6
CONTINUOUS
100
AcDbEntity
100
AcDbSpline
 70
8
 71
3
 72
11
 73
7
 74
0
 40
0.0
 40
0.0
 40
0.0
 40
0.0
 40
0.25
 40
0.5
 40
0.75
 40
1.0
 40
1.0
 40
1.0
 40
1.0
 10
0.0
 20
-50.0
 30
0.0
 10
5.3137417265053282
 20
-41.3399410694620002
 30
0.0
 10
12.9838065780993475
 20
-31.1005831671875264
 30
0.0
 10
20.7253423300354314
 20
-22.3185623197367136
 30
0.0
 10
30.7468587958147914
 20
-14.2050709635365138
 30
0.0
 10
42.7571217643076693
 20
-7.5261382197778035
 30
0.0
 10
52.4544799089578078
 20
-3.2670994678513838
 30
0.0
  0
SPLINE
  5
70
  8
0
 62
256
370
100
  6
CONTINUOUS
100
AcDbEntity
100
AcDbSpline
 70
8
 71
3
 72
10
 73
6
 74
0
 40
0.0
 40
0.0
 40
0.0
 40
0.0
 40
0.3333333333333333
 40
0.6666666666666666
 40
1.0
 40
1.0
 40
1.0
 40
1.0
 10
52.6545409398009099
 20
-3.1850514988841456
 30
0.0
 10
53.440000000001433
 20
-11.8400000000003178
 30
0.0
 10
54.8800000000014734
 20
-21.7600000000005842
 30
0.0
 10
57.1200000000015322
 20
-31.040000000000834
 30
0.0
 10
59.2000000000015874
 20
-35.0400000000009442
 30
0.0
 10
60.480000000001624
 20
-37.0
 30
0.0
  0
SPLINE
  5
71
  8
0
 62
256
370
100
  6
CONTINUOUS
100
AcDbEntity
100
AcDbSpline
 70
8
 71
3
 72
10
 73
6
 74
0
 40
0.0
 40
0.0
 40
0.0
 40
0.0
 40
0.3333333333333333
 40
0.6666666666666666
 40
1.0
 40
1.0
 40
1.0
 40
1.0
 10
104.4644999980437774
 20
-3.1850514988841425
 30
0.0
 10
105.2499590582442863
 20
-11.840000000000316
 30
0.0
 10
106.6899590582443409
 20
-21.7600000000005842
 30
0.0
 10
108.9299590582443926
 20
-31.040000000000834
 30
0.0
 10
111.0099590582444478
 20
-35.0400000000009442
 30
0.0
 10
112.2899590582444773
 20
-37.0
 30
0.0
  0
LINE
  5
72
100
AcDbEntity
100
AcDbLine
  8
0
 62
256
370
100
  6
CONTINUOUS
 10
60.5824154483118846
 20
-36.8597836834363619
 30
0.0
 11
61.3847252809821526
 21
-35.7828967182075104
 31
0.0
  0
LINE
  5
73
100
AcDbEntity
100
AcDbLine
  8
0
 62
256
370
100
  6
CONTINUOUS
 10
61.3847252809821526
 20
-35.7828967182075104
 30
0.0
 11
62.1597592562861792
 21
-34.7619522768804003
 31
0.0
  0
LINE
  5
74
100
AcDbEntity
100
AcDbLine
  8
0
 62
256
370
100
  6
CONTINUOUS
 10
62.1597592562861792
 20
-34.7619522768804003
 30
0.0
 11
62.9094825518879119
 21
-33.7913090257948809
 31
0.0
  0
LINE
  5
75
100
AcDbEntity
100
AcDbLine
  8
0
 62
256
370
100
  6
CONTINUOUS
 10
62.9094825518879119
 20
-33.7913090257948809
 30
0.0
 11
63.635860345451313
 21
-32.86532563129078
 31
0.0
  0
LINE
  5
76
100
AcDbEntity
100
AcDbLine
  8
0
 62
256
370
100
  6
CONTINUOUS
 10
63.635860345451313
 20
-32.86532563129078
 30
0.0
 11
64.3408587511271861
 21
-31.9783695318365453
 31
0.0
  0
LINE
  5
77
100
AcDbEntity
100
AcDbLine
  8
0
 62
256
370
100
  6
CONTINUOUS
 10
64.3408587511271861
 20
-31.9783695318365453
 30
0.0
 11
65.0265571979706181
 21
-31.1258695934588587
 31
0.0
  0
LINE
  5
78
100
AcDbEntity
100
AcDbLine
  8
0
 62
256
370
100
  6
CONTINUOUS
 10
65.0265571979706181
 20
-31.1258695934588587
 30
0.0
 11
65.6952551894375887
 21
-30.3053161324008862
 31
0.0
  0
LINE
  5
79
100
AcDbEntity
100
AcDbLine
  8
0
 62
256
370
100
  6
CONTINUOUS
 10
65.6952551894375887
 20
-30.3053161324008862
 30
0.0
 11
66.3492775141280617
 21
-29.5144363123774944
 31
0.0
  0
LINE
  5
7A
100
AcDbEntity
100
AcDbLine
  8
0
 62
256
370
100
  6
CONTINUOUS
 10
66.3492775141280617
 20
-29.5144363123774944
 30
0.0
 11
66.9909489606419584
 21
-28.750957297103529
 31
0.0
  0
LINE
  5
7B
100
AcDbEntity
100
AcDbLine
  8
0
 62
256
370
100
  6
CONTINUOUS
 10
66.9909489606419584
 20
-28.750957297103529
 30
0.0
 11
67.6225943175792281
 21
-28.0126062502938389
 31
0.0
  0
LINE
  5
7C
100
AcDbEntity
100
AcDbLine
  8
0
 62
256
370
100
  6
CONTINUOUS
 10
67.6225943175792281
 20
-28.0126062502938389
 30
0.0
 11
68.2465383735398063
 21
-27.2971103356632838
 31
0.0
  0
LINE
  5
7D
100
AcDbEntity
100
AcDbLine
  8
0
 62
256
370
100
  6
CONTINUOUS
 10
68.2465383735398063
 20
-27.2971103356632838
 30
0.0
 11
68.8651059171236568
 21
-26.6021967169267128
 31
0.0
  0
LINE
  5
7E
100
AcDbEntity
100
AcDbLine
  8
0
 62
256
370
100
  6
CONTINUOUS
 10
68.8651059171236568
 20
-26.6021967169267128
 30
0.0
 11
69.4806217369307006
 21
-25.925592557798975
 31
0.0
  0
LINE
  5
7F
100
AcDbEntity
100
AcDbLine
  8
0
 62
256
370
100
  6
CONTINUOUS
 10
69.4806217369307006
 20
-25.925592557798975
 30
0.0
 11
70.0954106215608732
 21
-25.2650250219949264
 31
0.0
  0
LINE
  5
80
100
AcDbEntity
100
AcDbLine
  8
0
 62
256
370
100
  6
CONTINUOUS
 10
70.0954106215608732
 20
-25.2650250219949264
 30
0.0
 11
70.7117973596141098
 21
-24.6182212732294126
 31
0.0
  0
LINE
  5
81
100
AcDbEntity
100
AcDbLine
  8
0
 62
256
370
100
  6
CONTINUOUS
 10
70.7117973596141098
 20
-24.6182212732294126
 30
0.0
 11
71.3321067396903743
 21
-23.9829084752172967
 31
0.0
  0
LINE
  5
82
100
AcDbEntity
100
AcDbLine
  8
0
 62
256
370
100
  6
CONTINUOUS
 10
71.3321067396903743
 20
-23.9829084752172967
 30
0.0
 11
71.9586635503895877
 21
-23.3568137916734244
 31
0.0
  0
LINE
  5
83
100
AcDbEntity
100
AcDbLine
  8
0
 62
256
370
100
  6
CONTINUOUS
 10
71.9586635503895877
 20
-23.3568137916734244
 30
0.0
 11
72.5937925803117139
 21
-22.7376643863126482
 31
0.0
  0
LINE
  5
84
100
AcDbEntity
100
AcDbLine
  8
0
 62
256
370
100
  6
CONTINUOUS
 10
72.5937925803117139
 20
-22.7376643863126482
 30
0.0
 11
73.2398159762738175
 21
-22.1232141500164765
 31
0.0
  0
LINE
  5
85
100
AcDbEntity
100
AcDbLine
  8
0
 62
256
370
100
  6
CONTINUOUS
 10
73.2398159762738175
 20
-22.1232141500164765
 30
0.0
 11
73.898995124087449
 21
-21.5118316984994493
 31
0.0
  0
LINE
  5
86
100
AcDbEntity
100
AcDbLine
  8
0
 62
256
370
100
  6
CONTINUOUS
 10
73.898995124087449
 20
-21.5118316984994493
 30
0.0
 11
74.5735306485586591
 21
-20.9025003723091523
 31
0.0
  0
LINE
  5
87
100
AcDbEntity
100
AcDbLine
  8
0
 62
256
370
100
  6
CONTINUOUS
 10
74.5735306485586591
 20
-20.9025003723091523
 30
0.0
 11
75.2656205327105852
 21
-20.2942302391598162
 31
0.0
  0
LINE
  5
88
100
AcDbEntity
100
AcDbLine
  8
0
 62
256
370
100
  6
CONTINUOUS
 10
75.2656205327105852
 20
-20.2942302391598162
 30
0.0
 11
75.9774627595664214
 21
-19.6860313667656825
 31
0.0
  0
LINE
  5
89
100
AcDbEntity
100
AcDbLine
  8
0
 62
256
370
100
  6
CONTINUOUS
 10
75.9774627595664214
 20
-19.6860313667656825
 30
0.0
 11
76.711255312149305
 21
-19.0769138228409822
 31
0.0
  0
LINE
  5
8A
100
AcDbEntity
100
AcDbLine
  8
0
 62
256
370
100
  6
CONTINUOUS
 10
76.711255312149305
 20
-19.0769138228409822
 30
0.0
 11
77.4691961734824019
 21
-18.4658876750999532
 31
0.0
  0
LINE
  5
8B
100
AcDbEntity
100
AcDbLine
  8
0
 62
256
370
100
  6
CONTINUOUS
 10
77.4691961734824019
 20
-18.4658876750999532
 30
0.0
 11
78.2534833265889205
 21
-17.8519629912568298
 31
0.0
  0
LINE
  5
8C
100
AcDbEntity
100
AcDbLine
  8
0
 62
256
370
100
  6
CONTINUOUS
 10
78.2534833265889205
 20
-17.8519629912568298
 30
0.0
 11
79.0663147544919838
 21
-17.2341498390258465
 31
0.0
  0
LINE
  5
8D
100
AcDbEntity
100
AcDbLine
  8
0
 62
256
370
100
  6
CONTINUOUS
 10
79.0663147544919838
 20
-17.2341498390258465
 30
0.0
 11
79.909888440214786
 21
-16.6114582861212448
 31
0.0
  0
LINE
  5
8E
100
AcDbEntity
100
AcDbLine
  8
0
 62
256
370
100
  6
CONTINUOUS
 10
79.909888440214786
 20
-16.6114582861212448
 30
0.0
 11
80.7864023667804787
 21
-15.9828984002572536
 31
0.0
  0
LINE
  5
8F
100
AcDbEntity
100
AcDbLine
  8
0
 62
256
370
100
  6
CONTINUOUS
 10
80.7864023667804787
 20
-15.9828984002572536
 30
0.0
 11
81.6980545172122419
 21
-15.3474802491481093
 31
0.0
  0
LINE
  5
90
100
AcDbEntity
100
AcDbLine
  8
0
 62
256
370
100
  6
CONTINUOUS
 10
81.6980545172122419
 20
-15.3474802491481093
 30
0.0
 11
82.6470428745332413
 21
-14.7042139005080514
 31
0.0
  0
LINE
  5
91
100
AcDbEntity
100
AcDbLine
  8
0
 62
256
370
100
  6
CONTINUOUS
 10
82.6470428745332413
 20
-14.7042139005080514
 30
0.0
 11
83.6355654217666284
 21
-14.0521094220513092
 31
0.0
  0
LINE
  5
92
100
AcDbEntity
100
AcDbLine
  8
0
 62
256
370
100
  6
CONTINUOUS
 10
83.6355654217666284
 20
-14.0521094220513092
 30
0.0
 11
84.6660485724760008
 21
-13.3901487768987941
 31
0.0
  0
LINE
  5
93
100
AcDbEntity
100
AcDbLine
  8
0
 62
256
370
100
  6
CONTINUOUS
 10
84.6660485724760008
 20
-13.3901487768987941
 30
0.0
 11
85.7429069319655213
 21
-12.7170693141183211
 31
0.0
  0
LINE
  5
94
100
AcDbEntity
100
AcDbLine
  8
0
 62
256
370
100
  6
CONTINUOUS
 10
85.7429069319655213
 20
-12.7170693141183211
 30
0.0
 11
86.8715788127760078
 21
-12.0314824325631538
 31
0.0
  0
LINE
  5
95
100
AcDbEntity
100
AcDbLine
  8
0
 62
256
370
100
  6
CONTINUOUS
 10
86.8715788127760078
 20
-12.0314824325631538
 30
0.0
 11
88.0575109878386684
 21
-11.3319984901756854
 31
0.0
  0
LINE
  5
96
100
AcDbEntity
100
AcDbLine
  8
0
 62
256
370
100
  6
CONTINUOUS
 10
88.0575109878386684
 20
-11.3319984901756854
 30
0.0
 11
89.3061502300847252
 21
-10.6172278448983128
 31
0.0
  0
LINE
  5
97
100
AcDbEntity
100
AcDbLine
  8
0
 62
256
370
100
  6
CONTINUOUS
 10
89.3061502300847252
 20
-10.6172278448983128
 30
0.0
 11
90.622943312445372
 21
-9.8857808546734294
 31
0.0
  0
LINE
  5
98
100
AcDbEntity
100
AcDbLine
  8
0
 62
256
370
100
  6
CONTINUOUS
 10
90.622943312445372
 20
-9.8857808546734294
 30
0.0
 11
92.0133370078518169
 21
-9.1362678774434301
 31
0.0
  0
LINE
  5
99
100
AcDbEntity
100
AcDbLine
  8
0
 62
256
370
100
  6
CONTINUOUS
 10
92.0133370078518169
 20
-9.1362678774434301
 30
0.0
 11
93.4827780892352678
 21
-8.3672992711507099
 31
0.0
  0
LINE
  5
9A
100
AcDbEntity
100
AcDbLine
  8
0
 62
256
370
100
  6
CONTINUOUS
 10
93.4827780892352678
 20
-8.3672992711507099
 30
0.0
 11
95.0367133295269326
 21
-7.5774853937376649
 31
0.0
  0
LINE
  5
9B
100
AcDbEntity
100
AcDbLine
  8
0
 62
256
370
100
  6
CONTINUOUS
 10
95.0367133295269326
 20
-7.5774853937376649
 30
0.0
 11
96.6805895016580195
 21
-6.7654366031466884
 31
0.0
  0
LINE
  5
9C
100
AcDbEntity
100
AcDbLine
  8
0
 62
256
370
100
  6
CONTINUOUS
 10
96.6805895016580195
 20
-6.7654366031466884
 30
0.0
 11
98.419853378559722
 21
-5.9297632573201753
 31
0.0
  0
LINE
  5
9D
100
AcDbEntity
100
AcDbLine
  8
0
 62
256
370
100
  6
CONTINUOUS
 10
98.419853378559722
 20
-5.9297632573201753
 30
0.0
 11
100.2599517331632768
 21
-5.0690757142005216
 31
0.0
  0
LINE
  5
9E
100
AcDbEntity
100
AcDbLine
  8
0
 62
256
370
100
  6
CONTINUOUS
 10
100.2599517331632768
 20
-5.0690757142005216
 30
0.0
 11
102.2063313383998633
 21
-4.1819843317301206
 31
0.0
  0
LINE
  5
9F
100
AcDbEntity
100
AcDbLine
  8
0
 62
256
370
100
  6
CONTINUOUS
 10
102.2063313383998633
 20
-4.1819843317301206
 30
0.0
 11
104.2644389672006753
 21
-3.2670994678513807
 31
0.0
  0
LINE
  5
A0
100
AcDbEntity
100
AcDbLine
  8
0
 62
256
370
100
  6
CONTINUOUS
 10
112.3923745065547308
 20
-36.8597836834363619
 30
0.0
 11
113.1946843392250059
 21
-35.7828967182075104
 31
0.0
  0
LINE
  5
A1
100
AcDbEntity
100
AcDbLine
  8
0
 62
256
370
100
  6
CONTINUOUS
 10
113.1946843392250059
 20
-35.7828967182075104
 30
0.0
 11
113.9697183145290325
 21
-34.7619522768804003
 31
0.0
  0
LINE
  5
A2
100
AcDbEntity
100
AcDbLine
  8
0
 62
256
370
100
  6
CONTINUOUS
 10
113.9697183145290325
 20
-34.7619522768804003
 30
0.0
 11
114.7194416101307581
 21
-33.7913090257948809
 31
0.0
  0
LINE
  5
A3
100
AcDbEntity
100
AcDbLine
  8
0
 62
256
370
100
  6
CONTINUOUS
 10
114.7194416101307581
 20
-33.7913090257948809
 30
0.0
 11
115.4458194036941592
 21
-32.86532563129078
 31
0.0
  0
LINE
  5
A4
100
AcDbEntity
100
AcDbLine
  8
0
 62
256
370
100
  6
CONTINUOUS
 10
115.4458194036941592
 20
-32.86532563129078
 30
0.0
 11
116.1508178093700394
 21
-31.9783695318365453
 31
0.0
  0
LINE
  5
A5
100
AcDbEntity
100
AcDbLine
  8
0
 62
256
370
100
  6
CONTINUOUS
 10
116.1508178093700394
 20
-31.9783695318365453
 30
0.0
 11
116.8365162562134714
 21
-31.1258695934588587
 31
0.0
  0
LINE
  5
A6
100
AcDbEntity
100
AcDbLine
  8
0
 62
256
370
100
  6
CONTINUOUS
 10
116.8365162562134714
 20
-31.1258695934588587
 30
0.0
 11
117.5052142476804278
 21
-30.3053161324008862
 31
0.0
  0
LINE
  5
A7
100
AcDbEntity
100
AcDbLine
  8
0
 62
256
370
100
  6
CONTINUOUS
 10
117.5052142476804278
 20
-30.3053161324008862
 30
0.0
 11
118.1592365723709008
 21
-29.5144363123774944
 31
0.0
  0
LINE
  5
A8
100
AcDbEntity
100
AcDbLine
  8
0
 62
256
370
100
  6
CONTINUOUS
 10
118.1592365723709008
 20
-29.5144363123774944
 30
0.0
 11
118.8009080188848117
 21
-28.750957297103529
 31
0.0
  0
LINE
  5
A9
100
AcDbEntity
100
AcDbLine
  8
0
 62
256
370
100
  6
CONTINUOUS
 10
118.8009080188848117
 20
-28.750957297103529
 30
0.0
 11
119.4325533758220672
 21
-28.0126062502938389
 31
0.0
  0
LINE
  5
AA
100
AcDbEntity
100
AcDbLine
  8
0
 62
256
370
100
  6
CONTINUOUS
 10
119.4325533758220672
 20
-28.0126062502938389
 30
0.0
 11
120.0564974317826596
 21
-27.2971103356632838
 31
0.0
  0
LINE
  5
AB
100
AcDbEntity
100
AcDbLine
  8
0
 62
256
370
100
  6
CONTINUOUS
 10
120.0564974317826596
 20
-27.2971103356632838
 30
0.0
 11
120.6750649753665101
 21
-26.6021967169267128
 31
0.0
  0
LINE
  5
AC
100
AcDbEntity
100
AcDbLine
  8
0
 62
256
370
100
  6
CONTINUOUS
 10
120.6750649753665101
 20
-26.6021967169267128
 30
0.0
 11
121.290580795173554
 21
-25.925592557798975
 31
0.0
  0
ENDSEC
  0
SECTION
  2
OBJECTS
  0
DICTIONARY
  5
C
100
AcDbDictionary
280
0
281
1
  3
ACAD_GROUP
350
D
  3
ACAD_LAYOUT
350
1A
  3
ACAD_MLINESTYLE
350
17
  3
ACAD_PLOTSETTINGS
350
19
  3
ACAD_PLOTSTYLENAME
350
E
  3
AcDbVariableDictionary
350
AD
  0
DICTIONARY
  5
D
100
AcDbDictionary
280
0
281
1
  0
ACDBDICTIONARYWDFLT
  5
E
100
AcDbDictionary
281
1
  3
Normal
350
F
100
AcDbDictionaryWithDefault
340
F
  0
ACDBPLACEHOLDER
  5
F
  0
DICTIONARY
  5
17
100
AcDbDictionary
280
0
281
1
  3
Standard
350
18
  0
MLINESTYLE
  5
18
100
AcDbMlineStyle
  2
STANDARD
 70
0
  3

 62
256
 51
90.0
 52
90.0
 71
2
 49
0.5
 62
256
  6
BYLAYER
 49
-0.5
 62
256
  6
BYLAYER
  0
DICTIONARY
  5
19
100
AcDbDictionary
280
0
281
1
  0
DICTIONARY
  5
1A
100
AcDbDictionary
281
1
  3
Layout1
350
1E
  3
Layout2
350
26
  3
Model
350
22
  0
LAYOUT
  5
1E
100
AcDbPlotSettings
  1

  2
C:\Program Files\AutoCAD 2002\plotters\DWF ePlot (optimized for plotting).pc3
  4

  6

 40
0.0
 41
0.0
 42
0.0
 43
0.0
 44
0.0
 45
0.0
 46
0.0
 47
0.0
 48
0.0
 49
0.0
140
0.0
141
0.0
142
1.0
143
1.0
 70
688
 72
0
 73
0
 74
5
  7

 75
16
147
1.0
148
0.0
149
0.0
100
AcDbLayout
  1
Layout1
 70
1
 71
1
 10
0.0
 20
0.0
 11
420.0
 21
297.0
 12
0.0
 22
0.0
 32
0.0
 14
100000000000000000000.0
 24
100000000000000000000.0
 34
100000000000000000000.0
 15
-100000000000000000000.0
 25
-100000000000000000000.0
 35
-100000000000000000000.0
146
0.0
 13
0.0
 23
0.0
 33
0.0
 16
1.0
 26
0.0
 36
0.0
 17
0.0
 27
1.0
 37
0.0
 76
0
330
1B
  0
LAYOUT
  5
22
100
AcDbPlotSettings
  1

  2
C:\Program Files\AutoCAD 2002\plotters\DWF ePlot (optimized for plotting).pc3
  4

  6

 40
0.0
 41
0.0
 42
0.0
 43
0.0
 44
0.0
 45
0.0
 46
0.0
 47
0.0
 48
0.0
 49
0.0
140
0.0
141
0.0
142
1.0
143
1.0
 70
1712
 72
0
 73
0
 74
0
  7

 75
0
147
1.0
148
0.0
149
0.0
100
AcDbLayout
  1
Model
 70
1
 71
0
 10
0.0
 20
0.0
 11
12.0
 21
9.0
 12
0.0
 22
0.0
 32
0.0
 14
0.0
 24
0.0
 34
0.0
 15
0.0
 25
0.0
 35
0.0
146
0.0
 13
0.0
 23
0.0
 33
0.0
 16
1.0
 26
0.0
 36
0.0
 17
0.0
 27
1.0
 37
0.0
 76
0
330
1F
  0
LAYOUT
  5
26
100
AcDbPlotSettings
  1

  2
C:\Program Files\AutoCAD 2002\plotters\DWF ePlot (optimized for plotting).pc3
  4

  6

 40
0.0
 41
0.0
 42
0.0
 43
0.0
 44
0.0
 45
0.0
 46
0.0
 47
0.0
 48
0.0
 49
0.0
140
0.0
141
0.0
142
1.0
143
1.0
 70
688
 72
0
 73
0
 74
5
  7

 75
16
147
1.0
148
0.0
149
0.0
100
AcDbLayout
  1
Layout2
 70
1
 71
2
 10
0.0
 20
0.0
 11
12.0
 21
9.0
 12
0.0
 22
0.0
 32
0.0
 14
0.0
 24
0.0
 34
0.0
 15
0.0
 25
0.0
 35
0.0
146
0.0
 13
0.0
 23
0.0
 33
0.0
 16
1.0
 26
0.0
 36
0.0
 17
0.0
 27
1.0
 37
0.0
 76
0
330
23
  0
DICTIONARY
  5
AD
100
AcDbDictionary
281
1
  3
DIMASSOC
350
AF
  3
HIDETEXT
350
AE
  0
DICTIONARYVAR
  5
AE
100
DictionaryVariables
280
0
  1
2
  0
DICTIONARYVAR
  5
AF
100
DictionaryVariables
280
0
  1
1
  0
ENDSEC
  0
EOF
